  0
SECTION
  2
HEADER
  9
$ACADVER
  1
AC1006
  9
$AXISMODE
 70
     0
  9
$AXISUNIT
 10
0.0625
 20
0.0625
  9
$CECOLOR
 62
0
  9
$CELTYPE
  6
CONTINUOUS
  9
$CLAYER
  8
LAYER1
  9
$EXTMIN
 10
0
 20
0
  9
$EXTMAX
 10
14.4062
 20
10.8728
  9
$LIMMIN
 10
0
 20
0
  9
$LIMMAX
 10
14.4062
 20
10.8728
  9
$GRIDMODE
 70
     0
  9
$GRIDUNIT
 10
0.125
 20
0.125
  9
$MIRRTEXT
 70
     1
  9
$SNAPMODE
 70
     1
  9
$SNAPUNIT
 10
0.125
 20
0
  9
$SNAPSTYLE
 70
     0
  9
$SPLINESEGS
 70
     8
  9
$SPLINETYPE
 70
     6
  0
ENDSEC
  0
SECTION
  2
TABLES
  0TABLE  2VPORT 70     2  0VPORT  2*ACTIVE 70     0 100.0 200.0 111.0 211.0 1213.01087 224.5 130.0 230.0 141.0 241.0 150.0 250.0 160.0 260.0 361.0 170.0 270.0 370.0 409.0 412.891304 4250.0 430.0 440.0 500.0 510.0 71     0 72   100 73     1 74     1 75     0 76     0 77     0 78     0  0ENDTAB
  0
TABLE
  2
LTYPE
 70
     1
  0
LTYPE
  2
CONTINUOUS
 70
    64
  3
Descriptive Text
 72
    65
 73
     0
 40
0
  0
ENDTAB
  0
TABLE
  2
LAYER
 70
     1
  0
LAYER
  2
LAYER1
 70
     0
 62
     7
  6
CONTINUOUS
  0
ENDTAB
  0TABLE  2STYLE 70     1  0STYLE  2STANDARD 70     0 400.0 411.0 500.0 71     0 420.2  3txt  4  0ENDTAB
  0
TABLE
  2
VIEW
 70
     0
  0
ENDTAB
  0
TABLE
  2
UCS
 70
     0
  0
ENDTAB
  0
TABLE
  2
DWGMGR
 70
     0
  0
ENDTAB
  0
ENDSEC
  0
SECTION
  2
BLOCKS
  0
BLOCK
  8
LAYER1
  2
Group1
 70
     0
 10
0
 20
0
 30
0
  0
LINE
  8
LAYER1
  6
CONTINUOUS
 62
     7
 10
0.059
 20
10.8611
 30
0
 11
4.559
 21
10.8611
 31
0
  0
TEXT
  8
LAYER1
 62
     7
 10
0.0839
 20
10.6291
 30
0
 40
0.125
  1
Concrete Decking
 50
0
999
Geneva
  0
ENDBLK
  8
LAYER1
  0
BLOCK
  8
LAYER1
  2
Group2
 70
     0
 10
0
 20
0
 30
0
  0
LINE
  8
LAYER1
  6
CONTINUOUS
 62
     7
 10
0.0868
 20
10.5694
 30
0
 11
4.5868
 21
10.5694
 31
0
  0
POLYLINE
  8
LAYER1
  6
CONTINUOUS
 62
     7
 66
     1
 70
     0
 40
0.0078
 41
0.0078
  0
VERTEX
  8
LAYER1
 10
1.7674
 20
9.5278
 30
0
 70
     0
  0
VERTEX
  8
LAYER1
 10
1.7674
 20
9.5278
 30
0
 70
     0
  0
VERTEX
  8
LAYER1
 10
1.7812
 20
9.5417
 30
0
 70
     0
  0
VERTEX
  8
LAYER1
 10
1.7812
 20
9.5417
 30
0
 70
     0
  0
VERTEX
  8
LAYER1
 10
1.7951
 20
9.5417
 30
0
 70
     0
  0
SEQEND
  0
POLYLINE
  8
LAYER1
  6
CONTINUOUS
 62
     7
 66
     1
 70
     0
 40
0.0078
 41
0.0078
  0
VERTEX
  8
LAYER1
 10
1.7535
 20
9.3194
 30
0
 70
     0
  0
VERTEX
  8
LAYER1
 10
1.7535
 20
9.3056
 30
0
 70
     0
  0
VERTEX
  8
LAYER1
 10
1.7535
 20
9.3056
 30
0
 70
     0
  0
VERTEX
  8
LAYER1
 10
1.7396
 20
9.3056
 30
0
 70
     0
  0
VERTEX
  8
LAYER1
 10
1.7396
 20
9.2917
 30
0
 70
     0
  0
VERTEX
  8
LAYER1
 10
1.7396
 20
9.2917
 30
0
 70
     0
  0
VERTEX
  8
LAYER1
 10
1.7257
 20
9.2917
 30
0
 70
     0
  0
SEQEND
  0
LINE
  8
LAYER1
  6
CONTINUOUS
 62
     7
 10
1.7674
 20
9.5278
 30
0
 11
1.7535
 21
9.3194
 31
0
  0
LINE
  8
LAYER1
  6
CONTINUOUS
 62
     7
 10
1.7951
 20
9.5417
 30
0
 11
2.1979
 21
9.5417
 31
0
  0
POLYLINE
  8
LAYER1
  6
CONTINUOUS
 62
     7
 66
     1
 70
     0
 40
0.0078
 41
0.0078
  0
VERTEX
  8
LAYER1
 10
2.1979
 20
9.5417
 30
0
 70
     0
  0
VERTEX
  8
LAYER1
 10
2.2118
 20
9.5417
 30
0
 70
     0
  0
VERTEX
  8
LAYER1
 10
2.2257
 20
9.5417
 30
0
 70
     0
  0
VERTEX
  8
LAYER1
 10
2.2257
 20
9.5278
 30
0
 70
     0
  0
VERTEX
  8
LAYER1
 10
2.2257
 20
9.5278
 30
0
 70
     0
  0
SEQEND
  0
POLYLINE
  8
LAYER1
  6
CONTINUOUS
 62
     7
 66
     1
 70
     0
 40
0.0078
 41
0.0078
  0
VERTEX
  8
LAYER1
 10
2.434
 20
9.5278
 30
0
 70
     0
  0
VERTEX
  8
LAYER1
 10
2.434
 20
9.5278
 30
0
 70
     0
  0
VERTEX
  8
LAYER1
 10
2.4479
 20
9.5417
 30
0
 70
     0
  0
VERTEX
  8
LAYER1
 10
2.4479
 20
9.5417
 30
0
 70
     0
  0
VERTEX
  8
LAYER1
 10
2.4618
 20
9.5417
 30
0
 70
     0
  0
SEQEND
  0
POLYLINE
  8
LAYER1
  6
CONTINUOUS
 62
     7
 66
     1
 70
     0
 40
0.0078
 41
0.0078
  0
VERTEX
  8
LAYER1
 10
2.4201
 20
9.3194
 30
0
 70
     0
  0
VERTEX
  8
LAYER1
 10
2.4201
 20
9.3056
 30
0
 70
     0
  0
VERTEX
  8
LAYER1
 10
2.4201
 20
9.3056
 30
0
 70
     0
  0
VERTEX
  8
LAYER1
 10
2.4062
 20
9.3056
 30
0
 70
     0
  0
VERTEX
  8
LAYER1
 10
2.4062
 20
9.2917
 30
0
 70
     0
  0
VERTEX
  8
LAYER1
 10
2.4062
 20
9.2917
 30
0
 70
     0
  0
VERTEX
  8
LAYER1
 10
2.3924
 20
9.2917
 30
0
 70
     0
  0
SEQEND
  0
LINE
  8
LAYER1
  6
CONTINUOUS
 62
     7
 10
2.434
 20
9.5278
 30
0
 11
2.4201
 21
9.3194
 31
0
  0
POLYLINE
  8
LAYER1
  6
CONTINUOUS
 62
     7
 66
     1
 70
     0
 40
0.0078
 41
0.0078
  0
VERTEX
  8
LAYER1
 10
2.2535
 20
9.2917
 30
0
 70
     0
  0
VERTEX
  8
LAYER1
 10
2.2396
 20
9.3056
 30
0
 70
     0
  0
VERTEX
  8
LAYER1
 10
2.2396
 20
9.3194
 30
0
 70
     0
  0
SEQEND
  0
LINE
  8
LAYER1
  6
CONTINUOUS
 62
     7
 10
2.2535
 20
9.2917
 30
0
 11
2.3924
 21
9.2917
 31
0
  0
LINE
  8
LAYER1
  6
CONTINUOUS
 62
     7
 10
2.2257
 20
9.5278
 30
0
 11
2.2396
 21
9.3194
 31
0
  0
LINE
  8
LAYER1
  6
CONTINUOUS
 62
     7
 10
2.4618
 20
9.5417
 30
0
 11
2.8646
 21
9.5417
 31
0
  0
POLYLINE
  8
LAYER1
  6
CONTINUOUS
 62
     7
 66
     1
 70
     0
 40
0.0078
 41
0.0078
  0
VERTEX
  8
LAYER1
 10
2.8646
 20
9.5417
 30
0
 70
     0
  0
VERTEX
  8
LAYER1
 10
2.8785
 20
9.5417
 30
0
 70
     0
  0
VERTEX
  8
LAYER1
 10
2.8924
 20
9.5417
 30
0
 70
     0
  0
VERTEX
  8
LAYER1
 10
2.8924
 20
9.5278
 30
0
 70
     0
  0
VERTEX
  8
LAYER1
 10
2.8924
 20
9.5278
 30
0
 70
     0
  0
SEQEND
  0
POLYLINE
  8
LAYER1
  6
CONTINUOUS
 62
     7
 66
     1
 70
     0
 40
0.0078
 41
0.0078
  0
VERTEX
  8
LAYER1
 10
3.1007
 20
9.5278
 30
0
 70
     0
  0
VERTEX
  8
LAYER1
 10
3.1007
 20
9.5278
 30
0
 70
     0
  0
VERTEX
  8
LAYER1
 10
3.1146
 20
9.5417
 30
0
 70
     0
  0
VERTEX
  8
LAYER1
 10
3.1146
 20
9.5417
 30
0
 70
     0
  0
VERTEX
  8
LAYER1
 10
3.1285
 20
9.5417
 30
0
 70
     0
  0
SEQEND
  0
POLYLINE
  8
LAYER1
  6
CONTINUOUS
 62
     7
 66
     1
 70
     0
 40
0.0078
 41
0.0078
  0
VERTEX
  8
LAYER1
 10
3.0868
 20
9.3194
 30
0
 70
     0
  0
VERTEX
  8
LAYER1
 10
3.0868
 20
9.3056
 30
0
 70
     0
  0
VERTEX
  8
LAYER1
 10
3.0868
 20
9.3056
 30
0
 70
     0
  0
VERTEX
  8
LAYER1
 10
3.0729
 20
9.3056
 30
0
 70
     0
  0
VERTEX
  8
LAYER1
 10
3.0729
 20
9.2917
 30
0
 70
     0
  0
VERTEX
  8
LAYER1
 10
3.0729
 20
9.2917
 30
0
 70
     0
  0
VERTEX
  8
LAYER1
 10
3.059
 20
9.2917
 30
0
 70
     0
  0
SEQEND
  0
LINE
  8
LAYER1
  6
CONTINUOUS
 62
     7
 10
3.1007
 20
9.5278
 30
0
 11
3.0868
 21
9.3194
 31
0
  0
POLYLINE
  8
LAYER1
  6
CONTINUOUS
 62
     7
 66
     1
 70
     0
 40
0.0078
 41
0.0078
  0
VERTEX
  8
LAYER1
 10
2.9201
 20
9.2917
 30
0
 70
     0
  0
VERTEX
  8
LAYER1
 10
2.9062
 20
9.3056
 30
0
 70
     0
  0
VERTEX
  8
LAYER1
 10
2.9062
 20
9.3194
 30
0
 70
     0
  0
SEQEND
  0
LINE
  8
LAYER1
  6
CONTINUOUS
 62
     7
 10
2.9201
 20
9.2917
 30
0
 11
3.059
 21
9.2917
 31
0
  0
LINE
  8
LAYER1
  6
CONTINUOUS
 62
     7
 10
2.8924
 20
9.5278
 30
0
 11
2.9062
 21
9.3194
 31
0
  0
LINE
  8
LAYER1
  6
CONTINUOUS
 62
     7
 10
3.1285
 20
9.5417
 30
0
 11
3.5312
 21
9.5417
 31
0
  0
POLYLINE
  8
LAYER1
  6
CONTINUOUS
 62
     7
 66
     1
 70
     0
 40
0.0078
 41
0.0078
  0
VERTEX
  8
LAYER1
 10
3.5312
 20
9.5417
 30
0
 70
     0
  0
VERTEX
  8
LAYER1
 10
3.5451
 20
9.5417
 30
0
 70
     0
  0
VERTEX
  8
LAYER1
 10
3.559
 20
9.5417
 30
0
 70
     0
  0
VERTEX
  8
LAYER1
 10
3.559
 20
9.5278
 30
0
 70
     0
  0
VERTEX
  8
LAYER1
 10
3.559
 20
9.5278
 30
0
 70
     0
  0
SEQEND
  0
POLYLINE
  8
LAYER1
  6
CONTINUOUS
 62
     7
 66
     1
 70
     0
 40
0.0078
 41
0.0078
  0
VERTEX
  8
LAYER1
 10
3.5868
 20
9.2917
 30
0
 70
     0
  0
VERTEX
  8
LAYER1
 10
3.5729
 20
9.3056
 30
0
 70
     0
  0
VERTEX
  8
LAYER1
 10
3.5729
 20
9.3194
 30
0
 70
     0
  0
SEQEND
  0
LINE
  8
LAYER1
  6
CONTINUOUS
 62
     7
 10
3.559
 20
9.5278
 30
0
 11
3.5729
 21
9.3194
 31
0
  0
POLYLINE
  8
LAYER1
  6
CONTINUOUS
 62
     7
 66
     1
 70
     0
 40
0.0078
 41
0.0078
  0
VERTEX
  8
LAYER1
 10
1.6562
 20
9.3611
 30
0
 70
     0
  0
VERTEX
  8
LAYER1
 10
1.6562
 20
9.375
 30
0
 70
     0
  0
VERTEX
  8
LAYER1
 10
1.6701
 20
9.375
 30
0
 70
     0
  0
VERTEX
  8
LAYER1
 10
1.6701
 20
9.375
 30
0
 70
     0
  0
VERTEX
  8
LAYER1
 10
1.6701
 20
9.3611
 30
0
 70
     0
  0
SEQEND
  0
POLYLINE
  8
LAYER1
  6
CONTINUOUS
 62
     7
 66
     1
 70
     0
 40
0.0078
 41
0.0078
  0
VERTEX
  8
LAYER1
 10
1.6979
 20
9.2917
 30
0
 70
     0
  0
VERTEX
  8
LAYER1
 10
1.684
 20
9.3056
 30
0
 70
     0
  0
VERTEX
  8
LAYER1
 10
1.684
 20
9.3194
 30
0
 70
     0
  0
SEQEND
  0
LINE
  8
LAYER1
  6
CONTINUOUS
 62
     7
 10
1.6979
 20
9.2917
 30
0
 11
1.7257
 21
9.2917
 31
0
  0
LINE
  8
LAYER1
  6
CONTINUOUS
 62
     7
 10
1.6701
 20
9.3611
 30
0
 11
1.684
 21
9.3194
 31
0
  0
LINE
  8
LAYER1
  6
CONTINUOUS
 62
     7
 10
1.6562
 20
9.3611
 30
0
 11
1.6562
 21
9.3194
 31
0
  0
POLYLINE
  8
LAYER1
  6
CONTINUOUS
 62
     7
 66
     1
 70
     0
 40
0.0078
 41
0.0078
  0
VERTEX
  8
LAYER1
 10
3.6562
 20
9.3194
 30
0
 70
     0
  0
VERTEX
  8
LAYER1
 10
3.6562
 20
9.3056
 30
0
 70
     0
  0
VERTEX
  8
LAYER1
 10
3.6562
 20
9.3056
 30
0
 70
     0
  0
VERTEX
  8
LAYER1
 10
3.6424
 20
9.3056
 30
0
 70
     0
  0
VERTEX
  8
LAYER1
 10
3.6424
 20
9.2917
 30
0
 70
     0
  0
VERTEX
  8
LAYER1
 10
3.6424
 20
9.2917
 30
0
 70
     0
  0
VERTEX
  8
LAYER1
 10
3.6285
 20
9.2917
 30
0
 70
     0
  0
SEQEND
  0
LINE
  8
LAYER1
  6
CONTINUOUS
 62
     7
 10
3.6562
 20
9.3194
 30
0
 11
3.6562
 21
9.3611
 31
0
  0
ENDBLK
  8
LAYER1
  0
BLOCK
  8
LAYER1
  2
Group3
 70
     0
 10
0
 20
0
 30
0
  0
LINE
  8
LAYER1
  6
CONTINUOUS
 62
     7
 10
3.5868
 20
9.2917
 30
0
 11
3.6285
 21
9.2917
 31
0
  0
POLYLINE
  8
LAYER1
  6
CONTINUOUS
 62
     7
 66
     1
 70
     0
 40
0.0078
 41
0.0078
  0
VERTEX
  8
LAYER1
 10
1.1562
 20
8.0694
 30
0
 70
     0
  0
VERTEX
  8
LAYER1
 10
1.1424
 20
8.0833
 30
0
 70
     0
  0
VERTEX
  8
LAYER1
 10
1.1424
 20
8.0972
 30
0
 70
     0
  0
SEQEND
  0
POLYLINE
  8
LAYER1
  6
CONTINUOUS
 62
     7
 66
     1
 70
     0
 40
0.0078
 41
0.0078
  0
VERTEX
  8
LAYER1
 10
1.2118
 20
8.0972
 30
0
 70
     0
  0
VERTEX
  8
LAYER1
 10
1.2118
 20
8.0833
 30
0
 70
     0
  0
VERTEX
  8
LAYER1
 10
1.2118
 20
8.0833
 30
0
 70
     0
  0
VERTEX
  8
LAYER1
 10
1.1979
 20
8.0833
 30
0
 70
     0
  0
VERTEX
  8
LAYER1
 10
1.1979
 20
8.0694
 30
0
 70
     0
  0
VERTEX
  8
LAYER1
 10
1.1979
 20
8.0694
 30
0
 70
     0
  0
VERTEX
  8
LAYER1
 10
1.184
 20
8.0694
 30
0
 70
     0
  0
SEQEND
  0
LINE
  8
LAYER1
  6
CONTINUOUS
 62
     7
 10
1.1562
 20
8.0694
 30
0
 11
1.184
 21
8.0694
 31
0
  0
LINE
  8
LAYER1
  6
CONTINUOUS
 62
     7
 10
1.1424
 20
8.1528
 30
0
 11
1.1424
 21
8.0972
 31
0
  0
POLYLINE
  8
LAYER1
  6
CONTINUOUS
 62
     7
 66
     1
 70
     0
 40
0.0078
 41
0.0078
  0
VERTEX
  8
LAYER1
 10
1.2118
 20
8.1806
 30
0
 70
     0
  0
VERTEX
  8
LAYER1
 10
1.2118
 20
8.1806
 30
0
 70
     0
  0
VERTEX
  8
LAYER1
 10
1.2257
 20
8.1944
 30
0
 70
     0
  0
VERTEX
  8
LAYER1
 10
1.2257
 20
8.1944
 30
0
 70
     0
  0
VERTEX
  8
LAYER1
 10
1.2396
 20
8.1944
 30
0
 70
     0
  0
SEQEND
  0
LINE
  8
LAYER1
  6
CONTINUOUS
 62
     7
 10
1.2118
 20
8.1806
 30
0
 11
1.2118
 21
8.0972
 31
0
  0
POLYLINE
  8
LAYER1
  6
CONTINUOUS
 62
     7
 66
     1
 70
     0
 40
0.0078
 41
0.0078
  0
VERTEX
  8
LAYER1
 10
1.6562
 20
8.0694
 30
0
 70
     0
  0
VERTEX
  8
LAYER1
 10
1.6424
 20
8.0833
 30
0
 70
     0
  0
VERTEX
  8
LAYER1
 10
1.6424
 20
8.0972
 30
0
 70
     0
  0
SEQEND
  0
POLYLINE
  8
LAYER1
  6
CONTINUOUS
 62
     7
 66
     1
 70
     0
 40
0.0078
 41
0.0078
  0
VERTEX
  8
LAYER1
 10
1.7118
 20
8.0972
 30
0
 70
     0
  0
VERTEX
  8
LAYER1
 10
1.7118
 20
8.0833
 30
0
 70
     0
  0
VERTEX
  8
LAYER1
 10
1.7118
 20
8.0833
 30
0
 70
     0
  0
VERTEX
  8
LAYER1
 10
1.6979
 20
8.0833
 30
0
 70
     0
  0
VERTEX
  8
LAYER1
 10
1.6979
 20
8.0694
 30
0
 70
     0
  0
VERTEX
  8
LAYER1
 10
1.6979
 20
8.0694
 30
0
 70
     0
  0
VERTEX
  8
LAYER1
 10
1.684
 20
8.0694
 30
0
 70
     0
  0
SEQEND
  0
LINE
  8
LAYER1
  6
CONTINUOUS
 62
     7
 10
1.6562
 20
8.0694
 30
0
 11
1.684
 21
8.0694
 31
0
  0
POLYLINE
  8
LAYER1
  6
CONTINUOUS
 62
     7
 66
     1
 70
     0
 40
0.0078
 41
0.0078
  0
VERTEX
  8
LAYER1
 10
1.6146
 20
8.1944
 30
0
 70
     0
  0
VERTEX
  8
LAYER1
 10
1.6285
 20
8.1944
 30
0
 70
     0
  0
VERTEX
  8
LAYER1
 10
1.6285
 20
8.1806
 30
0
 70
     0
  0
SEQEND
  0
LINE
  8
LAYER1
  6
CONTINUOUS
 62
     7
 10
1.6285
 20
8.1806
 30
0
 11
1.6424
 21
8.0972
 31
0
  0
POLYLINE
  8
LAYER1
  6
CONTINUOUS
 62
     7
 66
     1
 70
     0
 40
0.0078
 41
0.0078
  0
VERTEX
  8
LAYER1
 10
1.7118
 20
8.1806
 30
0
 70
     0
  0
VERTEX
  8
LAYER1
 10
1.7118
 20
8.1806
 30
0
 70
     0
  0
VERTEX
  8
LAYER1
 10
1.7257
 20
8.1944
 30
0
 70
     0
  0
VERTEX
  8
LAYER1
 10
1.7257
 20
8.1944
 30
0
 70
     0
  0
VERTEX
  8
LAYER1
 10
1.7396
 20
8.1944
 30
0
 70
     0
  0
SEQEND
  0
LINE
  8
LAYER1
  6
CONTINUOUS
 62
     7
 10
1.7118
 20
8.1806
 30
0
 11
1.7118
 21
8.0972
 31
0
  0
POLYLINE
  8
LAYER1
  6
CONTINUOUS
 62
     7
 66
     1
 70
     0
 40
0.0078
 41
0.0078
  0
VERTEX
  8
LAYER1
 10
2.1562
 20
8.0694
 30
0
 70
     0
  0
VERTEX
  8
LAYER1
 10
2.1424
 20
8.0833
 30
0
 70
     0
  0
VERTEX
  8
LAYER1
 10
2.1424
 20
8.0972
 30
0
 70
     0
  0
SEQEND
  0
POLYLINE
  8
LAYER1
  6
CONTINUOUS
 62
     7
 66
     1
 70
     0
 40
0.0078
 41
0.0078
  0
VERTEX
  8
LAYER1
 10
2.2118
 20
8.0972
 30
0
 70
     0
  0
VERTEX
  8
LAYER1
 10
2.2118
 20
8.0833
 30
0
 70
     0
  0
VERTEX
  8
LAYER1
 10
2.2118
 20
8.0833
 30
0
 70
     0
  0
VERTEX
  8
LAYER1
 10
2.1979
 20
8.0833
 30
0
 70
     0
  0
VERTEX
  8
LAYER1
 10
2.1979
 20
8.0694
 30
0
 70
     0
  0
VERTEX
  8
LAYER1
 10
2.1979
 20
8.0694
 30
0
 70
     0
  0
VERTEX
  8
LAYER1
 10
2.184
 20
8.0694
 30
0
 70
     0
  0
SEQEND
  0
LINE
  8
LAYER1
  6
CONTINUOUS
 62
     7
 10
2.1562
 20
8.0694
 30
0
 11
2.184
 21
8.0694
 31
0
  0
POLYLINE
  8
LAYER1
  6
CONTINUOUS
 62
     7
 66
     1
 70
     0
 40
0.0078
 41
0.0078
  0
VERTEX
  8
LAYER1
 10
2.1146
 20
8.1944
 30
0
 70
     0
  0
VERTEX
  8
LAYER1
 10
2.1285
 20
8.1944
 30
0
 70
     0
  0
VERTEX
  8
LAYER1
 10
2.1285
 20
8.1806
 30
0
 70
     0
  0
SEQEND
  0
LINE
  8
LAYER1
  6
CONTINUOUS
 62
     7
 10
2.1285
 20
8.1806
 30
0
 11
2.1424
 21
8.0972
 31
0
  0
POLYLINE
  8
LAYER1
  6
CONTINUOUS
 62
     7
 66
     1
 70
     0
 40
0.0078
 41
0.0078
  0
VERTEX
  8
LAYER1
 10
2.2118
 20
8.1806
 30
0
 70
     0
  0
VERTEX
  8
LAYER1
 10
2.2118
 20
8.1806
 30
0
 70
     0
  0
VERTEX
  8
LAYER1
 10
2.2257
 20
8.1944
 30
0
 70
     0
  0
VERTEX
  8
LAYER1
 10
2.2257
 20
8.1944
 30
0
 70
     0
  0
VERTEX
  8
LAYER1
 10
2.2396
 20
8.1944
 30
0
 70
     0
  0
SEQEND
  0
LINE
  8
LAYER1
  6
CONTINUOUS
 62
     7
 10
2.2118
 20
8.1806
 30
0
 11
2.2118
 21
8.0972
 31
0
  0
POLYLINE
  8
LAYER1
  6
CONTINUOUS
 62
     7
 66
     1
 70
     0
 40
0.0078
 41
0.0078
  0
VERTEX
  8
LAYER1
 10
2.6562
 20
8.0694
 30
0
 70
     0
  0
VERTEX
  8
LAYER1
 10
2.6424
 20
8.0833
 30
0
 70
     0
  0
VERTEX
  8
LAYER1
 10
2.6424
 20
8.0972
 30
0
 70
     0
  0
SEQEND
  0
POLYLINE
  8
LAYER1
  6
CONTINUOUS
 62
     7
 66
     1
 70
     0
 40
0.0078
 41
0.0078
  0
VERTEX
  8
LAYER1
 10
2.7118
 20
8.0972
 30
0
 70
     0
  0
VERTEX
  8
LAYER1
 10
2.7118
 20
8.0833
 30
0
 70
     0
  0
VERTEX
  8
LAYER1
 10
2.7118
 20
8.0833
 30
0
 70
     0
  0
VERTEX
  8
LAYER1
 10
2.6979
 20
8.0833
 30
0
 70
     0
  0
VERTEX
  8
LAYER1
 10
2.6979
 20
8.0694
 30
0
 70
     0
  0
VERTEX
  8
LAYER1
 10
2.6979
 20
8.0694
 30
0
 70
     0
  0
VERTEX
  8
LAYER1
 10
2.684
 20
8.0694
 30
0
 70
     0
  0
SEQEND
  0
LINE
  8
LAYER1
  6
CONTINUOUS
 62
     7
 10
2.6562
 20
8.0694
 30
0
 11
2.684
 21
8.0694
 31
0
  0
POLYLINE
  8
LAYER1
  6
CONTINUOUS
 62
     7
 66
     1
 70
     0
 40
0.0078
 41
0.0078
  0
VERTEX
  8
LAYER1
 10
2.6146
 20
8.1944
 30
0
 70
     0
  0
VERTEX
  8
LAYER1
 10
2.6285
 20
8.1944
 30
0
 70
     0
  0
VERTEX
  8
LAYER1
 10
2.6285
 20
8.1806
 30
0
 70
     0
  0
SEQEND
  0
LINE
  8
LAYER1
  6
CONTINUOUS
 62
     7
 10
2.6285
 20
8.1806
 30
0
 11
2.6424
 21
8.0972
 31
0
  0
POLYLINE
  8
LAYER1
  6
CONTINUOUS
 62
     7
 66
     1
 70
     0
 40
0.0078
 41
0.0078
  0
VERTEX
  8
LAYER1
 10
2.7118
 20
8.1806
 30
0
 70
     0
  0
VERTEX
  8
LAYER1
 10
2.7118
 20
8.1806
 30
0
 70
     0
  0
VERTEX
  8
LAYER1
 10
2.7257
 20
8.1944
 30
0
 70
     0
  0
VERTEX
  8
LAYER1
 10
2.7257
 20
8.1944
 30
0
 70
     0
  0
VERTEX
  8
LAYER1
 10
2.7396
 20
8.1944
 30
0
 70
     0
  0
SEQEND
  0
LINE
  8
LAYER1
  6
CONTINUOUS
 62
     7
 10
2.7118
 20
8.1806
 30
0
 11
2.7118
 21
8.0972
 31
0
  0
POLYLINE
  8
LAYER1
  6
CONTINUOUS
 62
     7
 66
     1
 70
     0
 40
0.0078
 41
0.0078
  0
VERTEX
  8
LAYER1
 10
3.1562
 20
8.0694
 30
0
 70
     0
  0
VERTEX
  8
LAYER1
 10
3.1424
 20
8.0833
 30
0
 70
     0
  0
VERTEX
  8
LAYER1
 10
3.1424
 20
8.0972
 30
0
 70
     0
  0
SEQEND
  0
POLYLINE
  8
LAYER1
  6
CONTINUOUS
 62
     7
 66
     1
 70
     0
 40
0.0078
 41
0.0078
  0
VERTEX
  8
LAYER1
 10
3.2118
 20
8.0972
 30
0
 70
     0
  0
VERTEX
  8
LAYER1
 10
3.2118
 20
8.0833
 30
0
 70
     0
  0
VERTEX
  8
LAYER1
 10
3.2118
 20
8.0833
 30
0
 70
     0
  0
VERTEX
  8
LAYER1
 10
3.1979
 20
8.0833
 30
0
 70
     0
  0
VERTEX
  8
LAYER1
 10
3.1979
 20
8.0694
 30
0
 70
     0
  0
VERTEX
  8
LAYER1
 10
3.1979
 20
8.0694
 30
0
 70
     0
  0
VERTEX
  8
LAYER1
 10
3.184
 20
8.0694
 30
0
 70
     0
  0
SEQEND
  0
LINE
  8
LAYER1
  6
CONTINUOUS
 62
     7
 10
3.1562
 20
8.0694
 30
0
 11
3.184
 21
8.0694
 31
0
  0
POLYLINE
  8
LAYER1
  6
CONTINUOUS
 62
     7
 66
     1
 70
     0
 40
0.0078
 41
0.0078
  0
VERTEX
  8
LAYER1
 10
3.1146
 20
8.1944
 30
0
 70
     0
  0
VERTEX
  8
LAYER1
 10
3.1285
 20
8.1944
 30
0
 70
     0
  0
VERTEX
  8
LAYER1
 10
3.1285
 20
8.1806
 30
0
 70
     0
  0
SEQEND
  0
LINE
  8
LAYER1
  6
CONTINUOUS
 62
     7
 10
3.1285
 20
8.1806
 30
0
 11
3.1424
 21
8.0972
 31
0
  0
POLYLINE
  8
LAYER1
  6
CONTINUOUS
 62
     7
 66
     1
 70
     0
 40
0.0078
 41
0.0078
  0
VERTEX
  8
LAYER1
 10
3.2118
 20
8.1806
 30
0
 70
     0
  0
VERTEX
  8
LAYER1
 10
3.2118
 20
8.1806
 30
0
 70
     0
  0
VERTEX
  8
LAYER1
 10
3.2257
 20
8.1944
 30
0
 70
     0
  0
VERTEX
  8
LAYER1
 10
3.2257
 20
8.1944
 30
0
 70
     0
  0
VERTEX
  8
LAYER1
 10
3.2396
 20
8.1944
 30
0
 70
     0
  0
SEQEND
  0
LINE
  8
LAYER1
  6
CONTINUOUS
 62
     7
 10
3.2118
 20
8.1806
 30
0
 11
3.2118
 21
8.0972
 31
0
  0
POLYLINE
  8
LAYER1
  6
CONTINUOUS
 62
     7
 66
     1
 70
     0
 40
0.0078
 41
0.0078
  0
VERTEX
  8
LAYER1
 10
3.6562
 20
8.0694
 30
0
 70
     0
  0
VERTEX
  8
LAYER1
 10
3.6424
 20
8.0833
 30
0
 70
     0
  0
VERTEX
  8
LAYER1
 10
3.6424
 20
8.0972
 30
0
 70
     0
  0
SEQEND
  0
POLYLINE
  8
LAYER1
  6
CONTINUOUS
 62
     7
 66
     1
 70
     0
 40
0.0078
 41
0.0078
  0
VERTEX
  8
LAYER1
 10
3.7118
 20
8.0972
 30
0
 70
     0
  0
VERTEX
  8
LAYER1
 10
3.7118
 20
8.0833
 30
0
 70
     0
  0
VERTEX
  8
LAYER1
 10
3.7118
 20
8.0833
 30
0
 70
     0
  0
VERTEX
  8
LAYER1
 10
3.6979
 20
8.0833
 30
0
 70
     0
  0
VERTEX
  8
LAYER1
 10
3.6979
 20
8.0694
 30
0
 70
     0
  0
VERTEX
  8
LAYER1
 10
3.6979
 20
8.0694
 30
0
 70
     0
  0
VERTEX
  8
LAYER1
 10
3.684
 20
8.0694
 30
0
 70
     0
  0
SEQEND
  0
LINE
  8
LAYER1
  6
CONTINUOUS
 62
     7
 10
3.6562
 20
8.0694
 30
0
 11
3.684
 21
8.0694
 31
0
  0
POLYLINE
  8
LAYER1
  6
CONTINUOUS
 62
     7
 66
     1
 70
     0
 40
0.0078
 41
0.0078
  0
VERTEX
  8
LAYER1
 10
3.6146
 20
8.1944
 30
0
 70
     0
  0
VERTEX
  8
LAYER1
 10
3.6285
 20
8.1944
 30
0
 70
     0
  0
VERTEX
  8
LAYER1
 10
3.6285
 20
8.1806
 30
0
 70
     0
  0
SEQEND
  0
LINE
  8
LAYER1
  6
CONTINUOUS
 62
     7
 10
3.6285
 20
8.1806
 30
0
 11
3.6424
 21
8.0972
 31
0
  0
POLYLINE
  8
LAYER1
  6
CONTINUOUS
 62
     7
 66
     1
 70
     0
 40
0.0078
 41
0.0078
  0
VERTEX
  8
LAYER1
 10
3.7118
 20
8.1806
 30
0
 70
     0
  0
VERTEX
  8
LAYER1
 10
3.7118
 20
8.1806
 30
0
 70
     0
  0
VERTEX
  8
LAYER1
 10
3.7257
 20
8.1944
 30
0
 70
     0
  0
VERTEX
  8
LAYER1
 10
3.7257
 20
8.1944
 30
0
 70
     0
  0
VERTEX
  8
LAYER1
 10
3.7396
 20
8.1944
 30
0
 70
     0
  0
SEQEND
  0
LINE
  8
LAYER1
  6
CONTINUOUS
 62
     7
 10
3.7118
 20
8.1806
 30
0
 11
3.7118
 21
8.0972
 31
0
  0
POLYLINE
  8
LAYER1
  6
CONTINUOUS
 62
     7
 66
     1
 70
     0
 40
0.0078
 41
0.0078
  0
VERTEX
  8
LAYER1
 10
4.1562
 20
8.0694
 30
0
 70
     0
  0
VERTEX
  8
LAYER1
 10
4.1424
 20
8.0833
 30
0
 70
     0
  0
VERTEX
  8
LAYER1
 10
4.1424
 20
8.0972
 30
0
 70
     0
  0
SEQEND
  0
LINE
  8
LAYER1
  6
CONTINUOUS
 62
     7
 10
4.1562
 20
8.0694
 30
0
 11
4.1701
 21
8.0694
 31
0
  0
POLYLINE
  8
LAYER1
  6
CONTINUOUS
 62
     7
 66
     1
 70
     0
 40
0.0078
 41
0.0078
  0
VERTEX
  8
LAYER1
 10
4.1146
 20
8.1944
 30
0
 70
     0
  0
VERTEX
  8
LAYER1
 10
4.1285
 20
8.1944
 30
0
 70
     0
  0
VERTEX
  8
LAYER1
 10
4.1285
 20
8.1806
 30
0
 70
     0
  0
SEQEND
  0
LINE
  8
LAYER1
  6
CONTINUOUS
 62
     7
 10
4.1285
 20
8.1806
 30
0
 11
4.1424
 21
8.0972
 31
0
  0
LINE
  8
LAYER1
  6
CONTINUOUS
 62
     7
 10
1.2396
 20
8.1944
 30
0
 11
1.6146
 21
8.1944
 31
0
  0
LINE
  8
LAYER1
  6
CONTINUOUS
 62
     7
 10
1.7396
 20
8.1944
 30
0
 11
2.1146
 21
8.1944
 31
0
  0
LINE
  8
LAYER1
  6
CONTINUOUS
 62
     7
 10
2.2396
 20
8.1944
 30
0
 11
2.6146
 21
8.1944
 31
0
  0
LINE
  8
LAYER1
  6
CONTINUOUS
 62
     7
 10
2.7396
 20
8.1944
 30
0
 11
3.1146
 21
8.1944
 31
0
  0
LINE
  8
LAYER1
  6
CONTINUOUS
 62
     7
 10
3.2396
 20
8.1944
 30
0
 11
3.6146
 21
8.1944
 31
0
  0
ENDBLK
  8
LAYER1
  0
BLOCK
  8
LAYER1
  2
Group4
 70
     0
 10
0
 20
0
 30
0
  0
LINE
  8
LAYER1
  6
CONTINUOUS
 62
     7
 10
1.2674
 20
6.9861
 30
0
 11
1.2535
 21
6.8889
 31
0
  0
POLYLINE
  8
LAYER1
  6
CONTINUOUS
 62
     7
 66
     1
 70
     0
 40
0.0078
 41
0.0078
  0
VERTEX
  8
LAYER1
 10
1.5451
 20
7
 30
0
 70
     0
  0
VERTEX
  8
LAYER1
 10
1.559
 20
7
 30
0
 70
     0
  0
VERTEX
  8
LAYER1
 10
1.559
 20
6.9861
 30
0
 70
     0
  0
SEQEND
  0
POLYLINE
  8
LAYER1
  6
CONTINUOUS
 62
     7
 66
     1
 70
     0
 40
0.0078
 41
0.0078
  0
VERTEX
  8
LAYER1
 10
1.6007
 20
6.875
 30
0
 70
     0
  0
VERTEX
  8
LAYER1
 10
1.6007
 20
6.875
 30
0
 70
     0
  0
VERTEX
  8
LAYER1
 10
1.5868
 20
6.875
 30
0
 70
     0
  0
VERTEX
  8
LAYER1
 10
1.5868
 20
6.8889
 30
0
 70
     0
  0
VERTEX
  8
LAYER1
 10
1.5729
 20
6.8889
 30
0
 70
     0
  0
SEQEND
  0
LINE
  8
LAYER1
  6
CONTINUOUS
 62
     7
 10
1.559
 20
6.9861
 30
0
 11
1.5729
 21
6.8889
 31
0
  0
POLYLINE
  8
LAYER1
  6
CONTINUOUS
 62
     7
 66
     1
 70
     0
 40
0.0078
 41
0.0078
  0
VERTEX
  8
LAYER1
 10
1.7535
 20
6.8889
 30
0
 70
     0
  0
VERTEX
  8
LAYER1
 10
1.7396
 20
6.8889
 30
0
 70
     0
  0
VERTEX
  8
LAYER1
 10
1.7396
 20
6.875
 30
0
 70
     0
  0
VERTEX
  8
LAYER1
 10
1.7396
 20
6.875
 30
0
 70
     0
  0
VERTEX
  8
LAYER1
 10
1.7257
 20
6.875
 30
0
 70
     0
  0
SEQEND
  0
LINE
  8
LAYER1
  6
CONTINUOUS
 62
     7
 10
1.6007
 20
6.875
 30
0
 11
1.7257
 21
6.875
 31
0
  0
POLYLINE
  8
LAYER1
  6
CONTINUOUS
 62
     7
 66
     1
 70
     0
 40
0.0078
 41
0.0078
  0
VERTEX
  8
LAYER1
 10
1.7674
 20
6.9861
 30
0
 70
     0
  0
VERTEX
  8
LAYER1
 10
1.7674
 20
7
 30
0
 70
     0
  0
VERTEX
  8
LAYER1
 10
1.7812
 20
7
 30
0
 70
     0
  0
SEQEND
  0
ENDBLK
  8
LAYER1
  0
BLOCK
  8
LAYER1
  2
Group5
 70
     0
 10
0
 20
0
 30
0
  0
LINE
  8
LAYER1
  6
CONTINUOUS
 62
     7
 10
1.7674
 20
6.9861
 30
0
 11
1.7535
 21
6.8889
 31
0
  0
POLYLINE
  8
LAYER1
  6
CONTINUOUS
 62
     7
 66
     1
 70
     0
 40
0.0078
 41
0.0078
  0
VERTEX
  8
LAYER1
 10
2.0451
 20
7
 30
0
 70
     0
  0
VERTEX
  8
LAYER1
 10
2.059
 20
7
 30
0
 70
     0
  0
VERTEX
  8
LAYER1
 10
2.059
 20
6.9861
 30
0
 70
     0
  0
SEQEND
  0
POLYLINE
  8
LAYER1
  6
CONTINUOUS
 62
     7
 66
     1
 70
     0
 40
0.0078
 41
0.0078
  0
VERTEX
  8
LAYER1
 10
2.1007
 20
6.875
 30
0
 70
     0
  0
VERTEX
  8
LAYER1
 10
2.1007
 20
6.875
 30
0
 70
     0
  0
VERTEX
  8
LAYER1
 10
2.0868
 20
6.875
 30
0
 70
     0
  0
VERTEX
  8
LAYER1
 10
2.0868
 20
6.8889
 30
0
 70
     0
  0
VERTEX
  8
LAYER1
 10
2.0729
 20
6.8889
 30
0
 70
     0
  0
SEQEND
  0
LINE
  8
LAYER1
  6
CONTINUOUS
 62
     7
 10
2.059
 20
6.9861
 30
0
 11
2.0729
 21
6.8889
 31
0
  0
POLYLINE
  8
LAYER1
  6
CONTINUOUS
 62
     7
 66
     1
 70
     0
 40
0.0078
 41
0.0078
  0
VERTEX
  8
LAYER1
 10
2.2535
 20
6.8889
 30
0
 70
     0
  0
VERTEX
  8
LAYER1
 10
2.2396
 20
6.8889
 30
0
 70
     0
  0
VERTEX
  8
LAYER1
 10
2.2396
 20
6.875
 30
0
 70
     0
  0
VERTEX
  8
LAYER1
 10
2.2396
 20
6.875
 30
0
 70
     0
  0
VERTEX
  8
LAYER1
 10
2.2257
 20
6.875
 30
0
 70
     0
  0
SEQEND
  0
LINE
  8
LAYER1
  6
CONTINUOUS
 62
     7
 10
2.1007
 20
6.875
 30
0
 11
2.2257
 21
6.875
 31
0
  0
POLYLINE
  8
LAYER1
  6
CONTINUOUS
 62
     7
 66
     1
 70
     0
 40
0.0078
 41
0.0078
  0
VERTEX
  8
LAYER1
 10
2.2674
 20
6.9861
 30
0
 70
     0
  0
VERTEX
  8
LAYER1
 10
2.2674
 20
7
 30
0
 70
     0
  0
VERTEX
  8
LAYER1
 10
2.2812
 20
7
 30
0
 70
     0
  0
SEQEND
  0
ENDBLK
  8
LAYER1
  0
BLOCK
  8
LAYER1
  2
Group6
 70
     0
 10
0
 20
0
 30
0
  0
LINE
  8
LAYER1
  6
CONTINUOUS
 62
     7
 10
2.2674
 20
6.9861
 30
0
 11
2.2535
 21
6.8889
 31
0
  0
POLYLINE
  8
LAYER1
  6
CONTINUOUS
 62
     7
 66
     1
 70
     0
 40
0.0078
 41
0.0078
  0
VERTEX
  8
LAYER1
 10
2.5451
 20
7
 30
0
 70
     0
  0
VERTEX
  8
LAYER1
 10
2.559
 20
7
 30
0
 70
     0
  0
VERTEX
  8
LAYER1
 10
2.559
 20
6.9861
 30
0
 70
     0
  0
SEQEND
  0
POLYLINE
  8
LAYER1
  6
CONTINUOUS
 62
     7
 66
     1
 70
     0
 40
0.0078
 41
0.0078
  0
VERTEX
  8
LAYER1
 10
2.6007
 20
6.875
 30
0
 70
     0
  0
VERTEX
  8
LAYER1
 10
2.6007
 20
6.875
 30
0
 70
     0
  0
VERTEX
  8
LAYER1
 10
2.5868
 20
6.875
 30
0
 70
     0
  0
VERTEX
  8
LAYER1
 10
2.5868
 20
6.8889
 30
0
 70
     0
  0
VERTEX
  8
LAYER1
 10
2.5729
 20
6.8889
 30
0
 70
     0
  0
SEQEND
  0
LINE
  8
LAYER1
  6
CONTINUOUS
 62
     7
 10
2.559
 20
6.9861
 30
0
 11
2.5729
 21
6.8889
 31
0
  0
POLYLINE
  8
LAYER1
  6
CONTINUOUS
 62
     7
 66
     1
 70
     0
 40
0.0078
 41
0.0078
  0
VERTEX
  8
LAYER1
 10
2.7535
 20
6.8889
 30
0
 70
     0
  0
VERTEX
  8
LAYER1
 10
2.7396
 20
6.8889
 30
0
 70
     0
  0
VERTEX
  8
LAYER1
 10
2.7396
 20
6.875
 30
0
 70
     0
  0
VERTEX
  8
LAYER1
 10
2.7396
 20
6.875
 30
0
 70
     0
  0
VERTEX
  8
LAYER1
 10
2.7257
 20
6.875
 30
0
 70
     0
  0
SEQEND
  0
LINE
  8
LAYER1
  6
CONTINUOUS
 62
     7
 10
2.6007
 20
6.875
 30
0
 11
2.7257
 21
6.875
 31
0
  0
POLYLINE
  8
LAYER1
  6
CONTINUOUS
 62
     7
 66
     1
 70
     0
 40
0.0078
 41
0.0078
  0
VERTEX
  8
LAYER1
 10
2.7674
 20
6.9861
 30
0
 70
     0
  0
VERTEX
  8
LAYER1
 10
2.7674
 20
7
 30
0
 70
     0
  0
VERTEX
  8
LAYER1
 10
2.7812
 20
7
 30
0
 70
     0
  0
SEQEND
  0
ENDBLK
  8
LAYER1
  0
BLOCK
  8
LAYER1
  2
Group7
 70
     0
 10
0
 20
0
 30
0
  0
LINE
  8
LAYER1
  6
CONTINUOUS
 62
     7
 10
2.7674
 20
6.9861
 30
0
 11
2.7535
 21
6.8889
 31
0
  0
POLYLINE
  8
LAYER1
  6
CONTINUOUS
 62
     7
 66
     1
 70
     0
 40
0.0078
 41
0.0078
  0
VERTEX
  8
LAYER1
 10
3.0451
 20
7
 30
0
 70
     0
  0
VERTEX
  8
LAYER1
 10
3.059
 20
7
 30
0
 70
     0
  0
VERTEX
  8
LAYER1
 10
3.059
 20
6.9861
 30
0
 70
     0
  0
SEQEND
  0
POLYLINE
  8
LAYER1
  6
CONTINUOUS
 62
     7
 66
     1
 70
     0
 40
0.0078
 41
0.0078
  0
VERTEX
  8
LAYER1
 10
3.1007
 20
6.875
 30
0
 70
     0
  0
VERTEX
  8
LAYER1
 10
3.1007
 20
6.875
 30
0
 70
     0
  0
VERTEX
  8
LAYER1
 10
3.0868
 20
6.875
 30
0
 70
     0
  0
VERTEX
  8
LAYER1
 10
3.0868
 20
6.8889
 30
0
 70
     0
  0
VERTEX
  8
LAYER1
 10
3.0729
 20
6.8889
 30
0
 70
     0
  0
SEQEND
  0
LINE
  8
LAYER1
  6
CONTINUOUS
 62
     7
 10
3.059
 20
6.9861
 30
0
 11
3.0729
 21
6.8889
 31
0
  0
POLYLINE
  8
LAYER1
  6
CONTINUOUS
 62
     7
 66
     1
 70
     0
 40
0.0078
 41
0.0078
  0
VERTEX
  8
LAYER1
 10
3.2535
 20
6.8889
 30
0
 70
     0
  0
VERTEX
  8
LAYER1
 10
3.2396
 20
6.8889
 30
0
 70
     0
  0
VERTEX
  8
LAYER1
 10
3.2396
 20
6.875
 30
0
 70
     0
  0
VERTEX
  8
LAYER1
 10
3.2396
 20
6.875
 30
0
 70
     0
  0
VERTEX
  8
LAYER1
 10
3.2257
 20
6.875
 30
0
 70
     0
  0
SEQEND
  0
LINE
  8
LAYER1
  6
CONTINUOUS
 62
     7
 10
3.1007
 20
6.875
 30
0
 11
3.2257
 21
6.875
 31
0
  0
POLYLINE
  8
LAYER1
  6
CONTINUOUS
 62
     7
 66
     1
 70
     0
 40
0.0078
 41
0.0078
  0
VERTEX
  8
LAYER1
 10
3.2674
 20
6.9861
 30
0
 70
     0
  0
VERTEX
  8
LAYER1
 10
3.2674
 20
7
 30
0
 70
     0
  0
VERTEX
  8
LAYER1
 10
3.2812
 20
7
 30
0
 70
     0
  0
SEQEND
  0
ENDBLK
  8
LAYER1
  0
BLOCK
  8
LAYER1
  2
Group8
 70
     0
 10
0
 20
0
 30
0
  0
LINE
  8
LAYER1
  6
CONTINUOUS
 62
     7
 10
3.2674
 20
6.9861
 30
0
 11
3.2535
 21
6.8889
 31
0
  0
POLYLINE
  8
LAYER1
  6
CONTINUOUS
 62
     7
 66
     1
 70
     0
 40
0.0078
 41
0.0078
  0
VERTEX
  8
LAYER1
 10
3.5451
 20
7
 30
0
 70
     0
  0
VERTEX
  8
LAYER1
 10
3.559
 20
7
 30
0
 70
     0
  0
VERTEX
  8
LAYER1
 10
3.559
 20
6.9861
 30
0
 70
     0
  0
SEQEND
  0
POLYLINE
  8
LAYER1
  6
CONTINUOUS
 62
     7
 66
     1
 70
     0
 40
0.0078
 41
0.0078
  0
VERTEX
  8
LAYER1
 10
3.6007
 20
6.875
 30
0
 70
     0
  0
VERTEX
  8
LAYER1
 10
3.6007
 20
6.875
 30
0
 70
     0
  0
VERTEX
  8
LAYER1
 10
3.5868
 20
6.875
 30
0
 70
     0
  0
VERTEX
  8
LAYER1
 10
3.5868
 20
6.8889
 30
0
 70
     0
  0
VERTEX
  8
LAYER1
 10
3.5729
 20
6.8889
 30
0
 70
     0
  0
SEQEND
  0
LINE
  8
LAYER1
  6
CONTINUOUS
 62
     7
 10
3.559
 20
6.9861
 30
0
 11
3.5729
 21
6.8889
 31
0
  0
POLYLINE
  8
LAYER1
  6
CONTINUOUS
 62
     7
 66
     1
 70
     0
 40
0.0078
 41
0.0078
  0
VERTEX
  8
LAYER1
 10
3.7535
 20
6.8889
 30
0
 70
     0
  0
VERTEX
  8
LAYER1
 10
3.7396
 20
6.8889
 30
0
 70
     0
  0
VERTEX
  8
LAYER1
 10
3.7396
 20
6.875
 30
0
 70
     0
  0
VERTEX
  8
LAYER1
 10
3.7396
 20
6.875
 30
0
 70
     0
  0
VERTEX
  8
LAYER1
 10
3.7257
 20
6.875
 30
0
 70
     0
  0
SEQEND
  0
LINE
  8
LAYER1
  6
CONTINUOUS
 62
     7
 10
3.6007
 20
6.875
 30
0
 11
3.7257
 21
6.875
 31
0
  0
POLYLINE
  8
LAYER1
  6
CONTINUOUS
 62
     7
 66
     1
 70
     0
 40
0.0078
 41
0.0078
  0
VERTEX
  8
LAYER1
 10
3.7674
 20
6.9861
 30
0
 70
     0
  0
VERTEX
  8
LAYER1
 10
3.7674
 20
7
 30
0
 70
     0
  0
VERTEX
  8
LAYER1
 10
3.7812
 20
7
 30
0
 70
     0
  0
SEQEND
  0
ENDBLK
  8
LAYER1
  0
BLOCK
  8
LAYER1
  2
Group9
 70
     0
 10
0
 20
0
 30
0
  0
LINE
  8
LAYER1
  6
CONTINUOUS
 62
     7
 10
3.7396
 20
8.1944
 30
0
 11
4.1146
 21
8.1944
 31
0
  0
POLYLINE
  8
LAYER1
  6
CONTINUOUS
 62
     7
 66
     1
 70
     0
 40
0.0078
 41
0.0078
  0
VERTEX
  8
LAYER1
 10
1.2535
 20
6.8889
 30
0
 70
     0
  0
VERTEX
  8
LAYER1
 10
1.2396
 20
6.8889
 30
0
 70
     0
  0
VERTEX
  8
LAYER1
 10
1.2396
 20
6.875
 30
0
 70
     0
  0
VERTEX
  8
LAYER1
 10
1.2396
 20
6.875
 30
0
 70
     0
  0
VERTEX
  8
LAYER1
 10
1.2257
 20
6.875
 30
0
 70
     0
  0
SEQEND
  0
POLYLINE
  8
LAYER1
  6
CONTINUOUS
 62
     7
 66
     1
 70
     0
 40
0.0078
 41
0.0078
  0
VERTEX
  8
LAYER1
 10
1.2674
 20
6.9861
 30
0
 70
     0
  0
VERTEX
  8
LAYER1
 10
1.2674
 20
7
 30
0
 70
     0
  0
VERTEX
  8
LAYER1
 10
1.2812
 20
7
 30
0
 70
     0
  0
SEQEND
  0
INSERT
  8
LAYER1
  2
Group4
 10
0
 20
0
 30
0
  0
INSERT
  8
LAYER1
  2
Group5
 10
0
 20
0
 30
0
  0
INSERT
  8
LAYER1
  2
Group6
 10
0
 20
0
 30
0
  0
INSERT
  8
LAYER1
  2
Group7
 10
0
 20
0
 30
0
  0
INSERT
  8
LAYER1
  2
Group8
 10
0
 20
0
 30
0
  0
LINE
  8
LAYER1
  6
CONTINUOUS
 62
     7
 10
3.7674
 20
6.9861
 30
0
 11
3.7535
 21
6.8889
 31
0
  0
POLYLINE
  8
LAYER1
  6
CONTINUOUS
 62
     7
 66
     1
 70
     0
 40
0.0078
 41
0.0078
  0
VERTEX
  8
LAYER1
 10
4.0451
 20
7
 30
0
 70
     0
  0
VERTEX
  8
LAYER1
 10
4.059
 20
7
 30
0
 70
     0
  0
VERTEX
  8
LAYER1
 10
4.059
 20
6.9861
 30
0
 70
     0
  0
SEQEND
  0
POLYLINE
  8
LAYER1
  6
CONTINUOUS
 62
     7
 66
     1
 70
     0
 40
0.0078
 41
0.0078
  0
VERTEX
  8
LAYER1
 10
4.1007
 20
6.875
 30
0
 70
     0
  0
VERTEX
  8
LAYER1
 10
4.1007
 20
6.875
 30
0
 70
     0
  0
VERTEX
  8
LAYER1
 10
4.0868
 20
6.875
 30
0
 70
     0
  0
VERTEX
  8
LAYER1
 10
4.0868
 20
6.8889
 30
0
 70
     0
  0
VERTEX
  8
LAYER1
 10
4.0729
 20
6.8889
 30
0
 70
     0
  0
SEQEND
  0
LINE
  8
LAYER1
  6
CONTINUOUS
 62
     7
 10
4.059
 20
6.9861
 30
0
 11
4.0729
 21
6.8889
 31
0
  0
POLYLINE
  8
LAYER1
  6
CONTINUOUS
 62
     7
 66
     1
 70
     0
 40
0.0078
 41
0.0078
  0
VERTEX
  8
LAYER1
 10
4.1562
 20
6.8889
 30
0
 70
     0
  0
VERTEX
  8
LAYER1
 10
4.1562
 20
6.8889
 30
0
 70
     0
  0
VERTEX
  8
LAYER1
 10
4.1424
 20
6.875
 30
0
 70
     0
  0
SEQEND
  0
LINE
  8
LAYER1
  6
CONTINUOUS
 62
     7
 10
1.2812
 20
7
 30
0
 11
1.5451
 21
7
 31
0
  0
LINE
  8
LAYER1
  6
CONTINUOUS
 62
     7
 10
1.7812
 20
7
 30
0
 11
2.0451
 21
7
 31
0
  0
LINE
  8
LAYER1
  6
CONTINUOUS
 62
     7
 10
2.2812
 20
7
 30
0
 11
2.5451
 21
7
 31
0
  0
LINE
  8
LAYER1
  6
CONTINUOUS
 62
     7
 10
2.7812
 20
7
 30
0
 11
3.0451
 21
7
 31
0
  0
LINE
  8
LAYER1
  6
CONTINUOUS
 62
     7
 10
3.2812
 20
7
 30
0
 11
3.5451
 21
7
 31
0
  0
LINE
  8
LAYER1
  6
CONTINUOUS
 62
     7
 10
3.7812
 20
7
 30
0
 11
4.0451
 21
7
 31
0
  0
LINE
  8
LAYER1
  6
CONTINUOUS
 62
     7
 10
4.1701
 20
6.9444
 30
0
 11
4.1562
 21
6.8889
 31
0
  0
LINE
  8
LAYER1
  6
CONTINUOUS
 62
     7
 10
4.1007
 20
6.875
 30
0
 11
4.1424
 21
6.875
 31
0
  0
POLYLINE
  8
LAYER1
  6
CONTINUOUS
 62
     7
 66
     1
 70
     0
 40
0.0078
 41
0.0078
  0
VERTEX
  8
LAYER1
 10
1.1562
 20
6.9444
 30
0
 70
     0
  0
VERTEX
  8
LAYER1
 10
1.1562
 20
6.9444
 30
0
 70
     0
  0
VERTEX
  8
LAYER1
 10
1.1701
 20
6.9444
 30
0
 70
     0
  0
VERTEX
  8
LAYER1
 10
1.1701
 20
6.9444
 30
0
 70
     0
  0
VERTEX
  8
LAYER1
 10
1.1701
 20
6.9444
 30
0
 70
     0
  0
SEQEND
  0
LINE
  8
LAYER1
  6
CONTINUOUS
 62
     7
 10
1.1562
 20
6.9444
 30
0
 11
1.1424
 21
6.8889
 31
0
  0
POLYLINE
  8
LAYER1
  6
CONTINUOUS
 62
     7
 66
     1
 70
     0
 40
0.0078
 41
0.0078
  0
VERTEX
  8
LAYER1
 10
1.1979
 20
6.875
 30
0
 70
     0
  0
VERTEX
  8
LAYER1
 10
1.184
 20
6.8889
 30
0
 70
     0
  0
VERTEX
  8
LAYER1
 10
1.184
 20
6.8889
 30
0
 70
     0
  0
SEQEND
  0
LINE
  8
LAYER1
  6
CONTINUOUS
 62
     7
 10
1.1701
 20
6.9444
 30
0
 11
1.184
 21
6.8889
 31
0
  0
ENDBLK
  8
LAYER1
  0
BLOCK
  8
LAYER1
  2
Group10
 70
     0
 10
0
 20
0
 30
0
  0
LINE
  8
LAYER1
  6
CONTINUOUS
 62
     7
 10
1.1979
 20
6.875
 30
0
 11
1.2257
 21
6.875
 31
0
  0
POLYLINE
  8
LAYER1
  6
CONTINUOUS
 62
     7
 66
     1
 70
     0
 40
0.0078
 41
0.0078
  0
VERTEX
  8
LAYER1
 10
1.2535
 20
5.7361
 30
0
 70
     0
  0
VERTEX
  8
LAYER1
 10
1.2674
 20
5.75
 30
0
 70
     0
  0
VERTEX
  8
LAYER1
 10
1.2812
 20
5.75
 30
0
 70
     0
  0
SEQEND
  0
POLYLINE
  8
LAYER1
  6
CONTINUOUS
 62
     7
 66
     1
 70
     0
 40
0.0078
 41
0.0078
  0
VERTEX
  8
LAYER1
 10
1.2396
 20
5.6389
 30
0
 70
     0
  0
VERTEX
  8
LAYER1
 10
1.2396
 20
5.6389
 30
0
 70
     0
  0
VERTEX
  8
LAYER1
 10
1.2257
 20
5.625
 30
0
 70
     0
  0
SEQEND
  0
LINE
  8
LAYER1
  6
CONTINUOUS
 62
     7
 10
1.2535
 20
5.7361
 30
0
 11
1.2396
 21
5.6389
 31
0
  0
POLYLINE
  8
LAYER1
  6
CONTINUOUS
 62
     7
 66
     1
 70
     0
 40
0.0078
 41
0.0078
  0
VERTEX
  8
LAYER1
 10
1.1562
 20
5.625
 30
0
 70
     0
  0
VERTEX
  8
LAYER1
 10
1.1562
 20
5.625
 30
0
 70
     0
  0
VERTEX
  8
LAYER1
 10
1.1424
 20
5.625
 30
0
 70
     0
  0
VERTEX
  8
LAYER1
 10
1.1424
 20
5.6389
 30
0
 70
     0
  0
VERTEX
  8
LAYER1
 10
1.1285
 20
5.6389
 30
0
 70
     0
  0
SEQEND
  0
LINE
  8
LAYER1
  6
CONTINUOUS
 62
     7
 10
1.1562
 20
5.625
 30
0
 11
1.2257
 21
5.625
 31
0
  0
LINE
  8
LAYER1
  6
CONTINUOUS
 62
     7
 10
1.1285
 20
5.6944
 30
0
 11
1.1285
 21
5.6389
 31
0
  0
POLYLINE
  8
LAYER1
  6
CONTINUOUS
 62
     7
 66
     1
 70
     0
 40
0.0078
 41
0.0078
  0
VERTEX
  8
LAYER1
 10
1.6007
 20
5.75
 30
0
 70
     0
  0
VERTEX
  8
LAYER1
 10
1.6146
 20
5.75
 30
0
 70
     0
  0
VERTEX
  8
LAYER1
 10
1.6146
 20
5.7361
 30
0
 70
     0
  0
SEQEND
  0
POLYLINE
  8
LAYER1
  6
CONTINUOUS
 62
     7
 66
     1
 70
     0
 40
0.0078
 41
0.0078
  0
VERTEX
  8
LAYER1
 10
1.7535
 20
5.7361
 30
0
 70
     0
  0
VERTEX
  8
LAYER1
 10
1.7674
 20
5.75
 30
0
 70
     0
  0
VERTEX
  8
LAYER1
 10
1.7812
 20
5.75
 30
0
 70
     0
  0
SEQEND
  0
POLYLINE
  8
LAYER1
  6
CONTINUOUS
 62
     7
 66
     1
 70
     0
 40
0.0078
 41
0.0078
  0
VERTEX
  8
LAYER1
 10
1.7396
 20
5.6389
 30
0
 70
     0
  0
VERTEX
  8
LAYER1
 10
1.7396
 20
5.6389
 30
0
 70
     0
  0
VERTEX
  8
LAYER1
 10
1.7257
 20
5.625
 30
0
 70
     0
  0
SEQEND
  0
LINE
  8
LAYER1
  6
CONTINUOUS
 62
     7
 10
1.7535
 20
5.7361
 30
0
 11
1.7396
 21
5.6389
 31
0
  0
POLYLINE
  8
LAYER1
  6
CONTINUOUS
 62
     7
 66
     1
 70
     0
 40
0.0078
 41
0.0078
  0
VERTEX
  8
LAYER1
 10
1.6562
 20
5.625
 30
0
 70
     0
  0
VERTEX
  8
LAYER1
 10
1.6562
 20
5.625
 30
0
 70
     0
  0
VERTEX
  8
LAYER1
 10
1.6424
 20
5.625
 30
0
 70
     0
  0
VERTEX
  8
LAYER1
 10
1.6424
 20
5.6389
 30
0
 70
     0
  0
VERTEX
  8
LAYER1
 10
1.6285
 20
5.6389
 30
0
 70
     0
  0
SEQEND
  0
LINE
  8
LAYER1
  6
CONTINUOUS
 62
     7
 10
1.6562
 20
5.625
 30
0
 11
1.7257
 21
5.625
 31
0
  0
LINE
  8
LAYER1
  6
CONTINUOUS
 62
     7
 10
1.6146
 20
5.7361
 30
0
 11
1.6285
 21
5.6389
 31
0
  0
POLYLINE
  8
LAYER1
  6
CONTINUOUS
 62
     7
 66
     1
 70
     0
 40
0.0078
 41
0.0078
  0
VERTEX
  8
LAYER1
 10
2.1007
 20
5.75
 30
0
 70
     0
  0
VERTEX
  8
LAYER1
 10
2.1146
 20
5.75
 30
0
 70
     0
  0
VERTEX
  8
LAYER1
 10
2.1146
 20
5.7361
 30
0
 70
     0
  0
SEQEND
  0
POLYLINE
  8
LAYER1
  6
CONTINUOUS
 62
     7
 66
     1
 70
     0
 40
0.0078
 41
0.0078
  0
VERTEX
  8
LAYER1
 10
2.2535
 20
5.7361
 30
0
 70
     0
  0
VERTEX
  8
LAYER1
 10
2.2674
 20
5.75
 30
0
 70
     0
  0
VERTEX
  8
LAYER1
 10
2.2812
 20
5.75
 30
0
 70
     0
  0
SEQEND
  0
POLYLINE
  8
LAYER1
  6
CONTINUOUS
 62
     7
 66
     1
 70
     0
 40
0.0078
 41
0.0078
  0
VERTEX
  8
LAYER1
 10
2.2396
 20
5.6389
 30
0
 70
     0
  0
VERTEX
  8
LAYER1
 10
2.2396
 20
5.6389
 30
0
 70
     0
  0
VERTEX
  8
LAYER1
 10
2.2257
 20
5.625
 30
0
 70
     0
  0
SEQEND
  0
LINE
  8
LAYER1
  6
CONTINUOUS
 62
     7
 10
2.2535
 20
5.7361
 30
0
 11
2.2396
 21
5.6389
 31
0
  0
POLYLINE
  8
LAYER1
  6
CONTINUOUS
 62
     7
 66
     1
 70
     0
 40
0.0078
 41
0.0078
  0
VERTEX
  8
LAYER1
 10
2.1562
 20
5.625
 30
0
 70
     0
  0
VERTEX
  8
LAYER1
 10
2.1562
 20
5.625
 30
0
 70
     0
  0
VERTEX
  8
LAYER1
 10
2.1424
 20
5.625
 30
0
 70
     0
  0
VERTEX
  8
LAYER1
 10
2.1424
 20
5.6389
 30
0
 70
     0
  0
VERTEX
  8
LAYER1
 10
2.1285
 20
5.6389
 30
0
 70
     0
  0
SEQEND
  0
LINE
  8
LAYER1
  6
CONTINUOUS
 62
     7
 10
2.1562
 20
5.625
 30
0
 11
2.2257
 21
5.625
 31
0
  0
LINE
  8
LAYER1
  6
CONTINUOUS
 62
     7
 10
2.1146
 20
5.7361
 30
0
 11
2.1285
 21
5.6389
 31
0
  0
POLYLINE
  8
LAYER1
  6
CONTINUOUS
 62
     7
 66
     1
 70
     0
 40
0.0078
 41
0.0078
  0
VERTEX
  8
LAYER1
 10
2.6007
 20
5.75
 30
0
 70
     0
  0
VERTEX
  8
LAYER1
 10
2.6146
 20
5.75
 30
0
 70
     0
  0
VERTEX
  8
LAYER1
 10
2.6146
 20
5.7361
 30
0
 70
     0
  0
SEQEND
  0
POLYLINE
  8
LAYER1
  6
CONTINUOUS
 62
     7
 66
     1
 70
     0
 40
0.0078
 41
0.0078
  0
VERTEX
  8
LAYER1
 10
2.7535
 20
5.7361
 30
0
 70
     0
  0
VERTEX
  8
LAYER1
 10
2.7674
 20
5.75
 30
0
 70
     0
  0
VERTEX
  8
LAYER1
 10
2.7812
 20
5.75
 30
0
 70
     0
  0
SEQEND
  0
POLYLINE
  8
LAYER1
  6
CONTINUOUS
 62
     7
 66
     1
 70
     0
 40
0.0078
 41
0.0078
  0
VERTEX
  8
LAYER1
 10
2.7396
 20
5.6389
 30
0
 70
     0
  0
VERTEX
  8
LAYER1
 10
2.7396
 20
5.6389
 30
0
 70
     0
  0
VERTEX
  8
LAYER1
 10
2.7257
 20
5.625
 30
0
 70
     0
  0
SEQEND
  0
LINE
  8
LAYER1
  6
CONTINUOUS
 62
     7
 10
2.7535
 20
5.7361
 30
0
 11
2.7396
 21
5.6389
 31
0
  0
POLYLINE
  8
LAYER1
  6
CONTINUOUS
 62
     7
 66
     1
 70
     0
 40
0.0078
 41
0.0078
  0
VERTEX
  8
LAYER1
 10
2.6562
 20
5.625
 30
0
 70
     0
  0
VERTEX
  8
LAYER1
 10
2.6562
 20
5.625
 30
0
 70
     0
  0
VERTEX
  8
LAYER1
 10
2.6424
 20
5.625
 30
0
 70
     0
  0
VERTEX
  8
LAYER1
 10
2.6424
 20
5.6389
 30
0
 70
     0
  0
VERTEX
  8
LAYER1
 10
2.6285
 20
5.6389
 30
0
 70
     0
  0
SEQEND
  0
LINE
  8
LAYER1
  6
CONTINUOUS
 62
     7
 10
2.6562
 20
5.625
 30
0
 11
2.7257
 21
5.625
 31
0
  0
LINE
  8
LAYER1
  6
CONTINUOUS
 62
     7
 10
2.6146
 20
5.7361
 30
0
 11
2.6285
 21
5.6389
 31
0
  0
POLYLINE
  8
LAYER1
  6
CONTINUOUS
 62
     7
 66
     1
 70
     0
 40
0.0078
 41
0.0078
  0
VERTEX
  8
LAYER1
 10
3.1007
 20
5.75
 30
0
 70
     0
  0
VERTEX
  8
LAYER1
 10
3.1146
 20
5.75
 30
0
 70
     0
  0
VERTEX
  8
LAYER1
 10
3.1146
 20
5.7361
 30
0
 70
     0
  0
SEQEND
  0
POLYLINE
  8
LAYER1
  6
CONTINUOUS
 62
     7
 66
     1
 70
     0
 40
0.0078
 41
0.0078
  0
VERTEX
  8
LAYER1
 10
3.2535
 20
5.7361
 30
0
 70
     0
  0
VERTEX
  8
LAYER1
 10
3.2674
 20
5.75
 30
0
 70
     0
  0
VERTEX
  8
LAYER1
 10
3.2812
 20
5.75
 30
0
 70
     0
  0
SEQEND
  0
POLYLINE
  8
LAYER1
  6
CONTINUOUS
 62
     7
 66
     1
 70
     0
 40
0.0078
 41
0.0078
  0
VERTEX
  8
LAYER1
 10
3.2396
 20
5.6389
 30
0
 70
     0
  0
VERTEX
  8
LAYER1
 10
3.2396
 20
5.6389
 30
0
 70
     0
  0
VERTEX
  8
LAYER1
 10
3.2257
 20
5.625
 30
0
 70
     0
  0
SEQEND
  0
LINE
  8
LAYER1
  6
CONTINUOUS
 62
     7
 10
3.2535
 20
5.7361
 30
0
 11
3.2396
 21
5.6389
 31
0
  0
POLYLINE
  8
LAYER1
  6
CONTINUOUS
 62
     7
 66
     1
 70
     0
 40
0.0078
 41
0.0078
  0
VERTEX
  8
LAYER1
 10
3.1562
 20
5.625
 30
0
 70
     0
  0
VERTEX
  8
LAYER1
 10
3.1562
 20
5.625
 30
0
 70
     0
  0
VERTEX
  8
LAYER1
 10
3.1424
 20
5.625
 30
0
 70
     0
  0
VERTEX
  8
LAYER1
 10
3.1424
 20
5.6389
 30
0
 70
     0
  0
VERTEX
  8
LAYER1
 10
3.1285
 20
5.6389
 30
0
 70
     0
  0
SEQEND
  0
LINE
  8
LAYER1
  6
CONTINUOUS
 62
     7
 10
3.1562
 20
5.625
 30
0
 11
3.2257
 21
5.625
 31
0
  0
LINE
  8
LAYER1
  6
CONTINUOUS
 62
     7
 10
3.1146
 20
5.7361
 30
0
 11
3.1285
 21
5.6389
 31
0
  0
POLYLINE
  8
LAYER1
  6
CONTINUOUS
 62
     7
 66
     1
 70
     0
 40
0.0078
 41
0.0078
  0
VERTEX
  8
LAYER1
 10
3.6007
 20
5.75
 30
0
 70
     0
  0
VERTEX
  8
LAYER1
 10
3.6146
 20
5.75
 30
0
 70
     0
  0
VERTEX
  8
LAYER1
 10
3.6146
 20
5.7361
 30
0
 70
     0
  0
SEQEND
  0
POLYLINE
  8
LAYER1
  6
CONTINUOUS
 62
     7
 66
     1
 70
     0
 40
0.0078
 41
0.0078
  0
VERTEX
  8
LAYER1
 10
3.7535
 20
5.7361
 30
0
 70
     0
  0
VERTEX
  8
LAYER1
 10
3.7674
 20
5.75
 30
0
 70
     0
  0
VERTEX
  8
LAYER1
 10
3.7812
 20
5.75
 30
0
 70
     0
  0
SEQEND
  0
POLYLINE
  8
LAYER1
  6
CONTINUOUS
 62
     7
 66
     1
 70
     0
 40
0.0078
 41
0.0078
  0
VERTEX
  8
LAYER1
 10
3.7396
 20
5.6389
 30
0
 70
     0
  0
VERTEX
  8
LAYER1
 10
3.7396
 20
5.6389
 30
0
 70
     0
  0
VERTEX
  8
LAYER1
 10
3.7257
 20
5.625
 30
0
 70
     0
  0
SEQEND
  0
LINE
  8
LAYER1
  6
CONTINUOUS
 62
     7
 10
3.7535
 20
5.7361
 30
0
 11
3.7396
 21
5.6389
 31
0
  0
POLYLINE
  8
LAYER1
  6
CONTINUOUS
 62
     7
 66
     1
 70
     0
 40
0.0078
 41
0.0078
  0
VERTEX
  8
LAYER1
 10
3.6562
 20
5.625
 30
0
 70
     0
  0
VERTEX
  8
LAYER1
 10
3.6562
 20
5.625
 30
0
 70
     0
  0
VERTEX
  8
LAYER1
 10
3.6424
 20
5.625
 30
0
 70
     0
  0
VERTEX
  8
LAYER1
 10
3.6424
 20
5.6389
 30
0
 70
     0
  0
VERTEX
  8
LAYER1
 10
3.6285
 20
5.6389
 30
0
 70
     0
  0
SEQEND
  0
LINE
  8
LAYER1
  6
CONTINUOUS
 62
     7
 10
3.6562
 20
5.625
 30
0
 11
3.7257
 21
5.625
 31
0
  0
LINE
  8
LAYER1
  6
CONTINUOUS
 62
     7
 10
3.6146
 20
5.7361
 30
0
 11
3.6285
 21
5.6389
 31
0
  0
POLYLINE
  8
LAYER1
  6
CONTINUOUS
 62
     7
 66
     1
 70
     0
 40
0.0078
 41
0.0078
  0
VERTEX
  8
LAYER1
 10
4.1007
 20
5.75
 30
0
 70
     0
  0
VERTEX
  8
LAYER1
 10
4.1146
 20
5.75
 30
0
 70
     0
  0
VERTEX
  8
LAYER1
 10
4.1146
 20
5.7361
 30
0
 70
     0
  0
SEQEND
  0
POLYLINE
  8
LAYER1
  6
CONTINUOUS
 62
     7
 66
     1
 70
     0
 40
0.0078
 41
0.0078
  0
VERTEX
  8
LAYER1
 10
4.1562
 20
5.625
 30
0
 70
     0
  0
VERTEX
  8
LAYER1
 10
4.1562
 20
5.625
 30
0
 70
     0
  0
VERTEX
  8
LAYER1
 10
4.1424
 20
5.625
 30
0
 70
     0
  0
VERTEX
  8
LAYER1
 10
4.1424
 20
5.6389
 30
0
 70
     0
  0
VERTEX
  8
LAYER1
 10
4.1285
 20
5.6389
 30
0
 70
     0
  0
SEQEND
  0
LINE
  8
LAYER1
  6
CONTINUOUS
 62
     7
 10
4.1562
 20
5.625
 30
0
 11
4.184
 21
5.625
 31
0
  0
LINE
  8
LAYER1
  6
CONTINUOUS
 62
     7
 10
4.1146
 20
5.7361
 30
0
 11
4.1285
 21
5.6389
 31
0
  0
LINE
  8
LAYER1
  6
CONTINUOUS
 62
     7
 10
1.2812
 20
5.75
 30
0
 11
1.6007
 21
5.75
 31
0
  0
LINE
  8
LAYER1
  6
CONTINUOUS
 62
     7
 10
1.7812
 20
5.75
 30
0
 11
2.1007
 21
5.75
 31
0
  0
LINE
  8
LAYER1
  6
CONTINUOUS
 62
     7
 10
2.2812
 20
5.75
 30
0
 11
2.6007
 21
5.75
 31
0
  0
LINE
  8
LAYER1
  6
CONTINUOUS
 62
     7
 10
2.7812
 20
5.75
 30
0
 11
3.1007
 21
5.75
 31
0
  0
LINE
  8
LAYER1
  6
CONTINUOUS
 62
     7
 10
3.2812
 20
5.75
 30
0
 11
3.6007
 21
5.75
 31
0
  0
ENDBLK
  8
LAYER1
  0
BLOCK
  8
LAYER1
  2
Group11
 70
     0
 10
0
 20
0
 30
0
  0
LINE
  8
LAYER1
  6
CONTINUOUS
 62
     7
 10
3.7812
 20
5.75
 30
0
 11
4.1007
 21
5.75
 31
0
  0
POLYLINE
  8
LAYER1
  6
CONTINUOUS
 62
     7
 66
     1
 70
     0
 40
0.0078
 41
0.0078
  0
VERTEX
  8
LAYER1
 10
1.6285
 20
4.7361
 30
0
 70
     0
  0
VERTEX
  8
LAYER1
 10
1.6146
 20
4.7361
 30
0
 70
     0
  0
SEQEND
  0
POLYLINE
  8
LAYER1
  6
CONTINUOUS
 62
     7
 66
     1
 70
     0
 40
0.0078
 41
0.0078
  0
VERTEX
  8
LAYER1
 10
1.6979
 20
4.7361
 30
0
 70
     0
  0
VERTEX
  8
LAYER1
 10
1.684
 20
4.7361
 30
0
 70
     0
  0
SEQEND
  0
LINE
  8
LAYER1
  6
CONTINUOUS
 62
     7
 10
1.6285
 20
4.7361
 30
0
 11
1.684
 21
4.7361
 31
0
  0
POLYLINE
  8
LAYER1
  6
CONTINUOUS
 62
     7
 66
     1
 70
     0
 40
0.0078
 41
0.0078
  0
VERTEX
  8
LAYER1
 10
1.5174
 20
4.8194
 30
0
 70
     0
  0
VERTEX
  8
LAYER1
 10
1.5312
 20
4.8194
 30
0
 70
     0
  0
VERTEX
  8
LAYER1
 10
1.5312
 20
4.8056
 30
0
 70
     0
  0
VERTEX
  8
LAYER1
 10
1.5312
 20
4.8056
 30
0
 70
     0
  0
SEQEND
  0
LINE
  8
LAYER1
  6
CONTINUOUS
 62
     7
 10
1.5312
 20
4.8056
 30
0
 11
1.6146
 21
4.7361
 31
0
  0
POLYLINE
  8
LAYER1
  6
CONTINUOUS
 62
     7
 66
     1
 70
     0
 40
0.0078
 41
0.0078
  0
VERTEX
  8
LAYER1
 10
1.7812
 20
4.8056
 30
0
 70
     0
  0
VERTEX
  8
LAYER1
 10
1.7812
 20
4.8056
 30
0
 70
     0
  0
VERTEX
  8
LAYER1
 10
1.7951
 20
4.8194
 30
0
 70
     0
  0
VERTEX
  8
LAYER1
 10
1.7951
 20
4.8194
 30
0
 70
     0
  0
SEQEND
  0
LINE
  8
LAYER1
  6
CONTINUOUS
 62
     7
 10
1.7812
 20
4.8056
 30
0
 11
1.6979
 21
4.7361
 31
0
  0
POLYLINE
  8
LAYER1
  6
CONTINUOUS
 62
     7
 66
     1
 70
     0
 40
0.0078
 41
0.0078
  0
VERTEX
  8
LAYER1
 10
1.9618
 20
4.7361
 30
0
 70
     0
  0
VERTEX
  8
LAYER1
 10
1.9479
 20
4.7361
 30
0
 70
     0
  0
SEQEND
  0
POLYLINE
  8
LAYER1
  6
CONTINUOUS
 62
     7
 66
     1
 70
     0
 40
0.0078
 41
0.0078
  0
VERTEX
  8
LAYER1
 10
2.0312
 20
4.7361
 30
0
 70
     0
  0
VERTEX
  8
LAYER1
 10
2.0174
 20
4.7361
 30
0
 70
     0
  0
SEQEND
  0
LINE
  8
LAYER1
  6
CONTINUOUS
 62
     7
 10
1.9618
 20
4.7361
 30
0
 11
2.0174
 21
4.7361
 31
0
  0
POLYLINE
  8
LAYER1
  6
CONTINUOUS
 62
     7
 66
     1
 70
     0
 40
0.0078
 41
0.0078
  0
VERTEX
  8
LAYER1
 10
1.8507
 20
4.8194
 30
0
 70
     0
  0
VERTEX
  8
LAYER1
 10
1.8646
 20
4.8194
 30
0
 70
     0
  0
VERTEX
  8
LAYER1
 10
1.8646
 20
4.8056
 30
0
 70
     0
  0
VERTEX
  8
LAYER1
 10
1.8646
 20
4.8056
 30
0
 70
     0
  0
SEQEND
  0
LINE
  8
LAYER1
  6
CONTINUOUS
 62
     7
 10
1.8646
 20
4.8056
 30
0
 11
1.9479
 21
4.7361
 31
0
  0
POLYLINE
  8
LAYER1
  6
CONTINUOUS
 62
     7
 66
     1
 70
     0
 40
0.0078
 41
0.0078
  0
VERTEX
  8
LAYER1
 10
2.1146
 20
4.8056
 30
0
 70
     0
  0
VERTEX
  8
LAYER1
 10
2.1146
 20
4.8056
 30
0
 70
     0
  0
VERTEX
  8
LAYER1
 10
2.1285
 20
4.8194
 30
0
 70
     0
  0
VERTEX
  8
LAYER1
 10
2.1285
 20
4.8194
 30
0
 70
     0
  0
SEQEND
  0
LINE
  8
LAYER1
  6
CONTINUOUS
 62
     7
 10
2.1146
 20
4.8056
 30
0
 11
2.0312
 21
4.7361
 31
0
  0
POLYLINE
  8
LAYER1
  6
CONTINUOUS
 62
     7
 66
     1
 70
     0
 40
0.0078
 41
0.0078
  0
VERTEX
  8
LAYER1
 10
2.2951
 20
4.7361
 30
0
 70
     0
  0
VERTEX
  8
LAYER1
 10
2.2812
 20
4.7361
 30
0
 70
     0
  0
SEQEND
  0
POLYLINE
  8
LAYER1
  6
CONTINUOUS
 62
     7
 66
     1
 70
     0
 40
0.0078
 41
0.0078
  0
VERTEX
  8
LAYER1
 10
2.3646
 20
4.7361
 30
0
 70
     0
  0
VERTEX
  8
LAYER1
 10
2.3507
 20
4.7361
 30
0
 70
     0
  0
SEQEND
  0
LINE
  8
LAYER1
  6
CONTINUOUS
 62
     7
 10
2.2951
 20
4.7361
 30
0
 11
2.3507
 21
4.7361
 31
0
  0
POLYLINE
  8
LAYER1
  6
CONTINUOUS
 62
     7
 66
     1
 70
     0
 40
0.0078
 41
0.0078
  0
VERTEX
  8
LAYER1
 10
2.184
 20
4.8194
 30
0
 70
     0
  0
VERTEX
  8
LAYER1
 10
2.1979
 20
4.8194
 30
0
 70
     0
  0
VERTEX
  8
LAYER1
 10
2.1979
 20
4.8056
 30
0
 70
     0
  0
VERTEX
  8
LAYER1
 10
2.1979
 20
4.8056
 30
0
 70
     0
  0
SEQEND
  0
LINE
  8
LAYER1
  6
CONTINUOUS
 62
     7
 10
2.1979
 20
4.8056
 30
0
 11
2.2812
 21
4.7361
 31
0
  0
POLYLINE
  8
LAYER1
  6
CONTINUOUS
 62
     7
 66
     1
 70
     0
 40
0.0078
 41
0.0078
  0
VERTEX
  8
LAYER1
 10
2.4479
 20
4.8056
 30
0
 70
     0
  0
VERTEX
  8
LAYER1
 10
2.4479
 20
4.8056
 30
0
 70
     0
  0
VERTEX
  8
LAYER1
 10
2.4618
 20
4.8194
 30
0
 70
     0
  0
VERTEX
  8
LAYER1
 10
2.4618
 20
4.8194
 30
0
 70
     0
  0
SEQEND
  0
LINE
  8
LAYER1
  6
CONTINUOUS
 62
     7
 10
2.4479
 20
4.8056
 30
0
 11
2.3646
 21
4.7361
 31
0
  0
POLYLINE
  8
LAYER1
  6
CONTINUOUS
 62
     7
 66
     1
 70
     0
 40
0.0078
 41
0.0078
  0
VERTEX
  8
LAYER1
 10
2.6285
 20
4.7361
 30
0
 70
     0
  0
VERTEX
  8
LAYER1
 10
2.6146
 20
4.7361
 30
0
 70
     0
  0
SEQEND
  0
POLYLINE
  8
LAYER1
  6
CONTINUOUS
 62
     7
 66
     1
 70
     0
 40
0.0078
 41
0.0078
  0
VERTEX
  8
LAYER1
 10
2.6979
 20
4.7361
 30
0
 70
     0
  0
VERTEX
  8
LAYER1
 10
2.684
 20
4.7361
 30
0
 70
     0
  0
SEQEND
  0
LINE
  8
LAYER1
  6
CONTINUOUS
 62
     7
 10
2.6285
 20
4.7361
 30
0
 11
2.684
 21
4.7361
 31
0
  0
POLYLINE
  8
LAYER1
  6
CONTINUOUS
 62
     7
 66
     1
 70
     0
 40
0.0078
 41
0.0078
  0
VERTEX
  8
LAYER1
 10
2.5174
 20
4.8194
 30
0
 70
     0
  0
VERTEX
  8
LAYER1
 10
2.5312
 20
4.8194
 30
0
 70
     0
  0
VERTEX
  8
LAYER1
 10
2.5312
 20
4.8056
 30
0
 70
     0
  0
VERTEX
  8
LAYER1
 10
2.5312
 20
4.8056
 30
0
 70
     0
  0
SEQEND
  0
LINE
  8
LAYER1
  6
CONTINUOUS
 62
     7
 10
2.5312
 20
4.8056
 30
0
 11
2.6146
 21
4.7361
 31
0
  0
POLYLINE
  8
LAYER1
  6
CONTINUOUS
 62
     7
 66
     1
 70
     0
 40
0.0078
 41
0.0078
  0
VERTEX
  8
LAYER1
 10
2.7812
 20
4.8056
 30
0
 70
     0
  0
VERTEX
  8
LAYER1
 10
2.7812
 20
4.8056
 30
0
 70
     0
  0
VERTEX
  8
LAYER1
 10
2.7951
 20
4.8194
 30
0
 70
     0
  0
VERTEX
  8
LAYER1
 10
2.7951
 20
4.8194
 30
0
 70
     0
  0
SEQEND
  0
LINE
  8
LAYER1
  6
CONTINUOUS
 62
     7
 10
2.7812
 20
4.8056
 30
0
 11
2.6979
 21
4.7361
 31
0
  0
POLYLINE
  8
LAYER1
  6
CONTINUOUS
 62
     7
 66
     1
 70
     0
 40
0.0078
 41
0.0078
  0
VERTEX
  8
LAYER1
 10
2.9618
 20
4.7361
 30
0
 70
     0
  0
VERTEX
  8
LAYER1
 10
2.9479
 20
4.7361
 30
0
 70
     0
  0
SEQEND
  0
POLYLINE
  8
LAYER1
  6
CONTINUOUS
 62
     7
 66
     1
 70
     0
 40
0.0078
 41
0.0078
  0
VERTEX
  8
LAYER1
 10
3.0312
 20
4.7361
 30
0
 70
     0
  0
VERTEX
  8
LAYER1
 10
3.0174
 20
4.7361
 30
0
 70
     0
  0
SEQEND
  0
LINE
  8
LAYER1
  6
CONTINUOUS
 62
     7
 10
2.9618
 20
4.7361
 30
0
 11
3.0174
 21
4.7361
 31
0
  0
POLYLINE
  8
LAYER1
  6
CONTINUOUS
 62
     7
 66
     1
 70
     0
 40
0.0078
 41
0.0078
  0
VERTEX
  8
LAYER1
 10
2.8507
 20
4.8194
 30
0
 70
     0
  0
VERTEX
  8
LAYER1
 10
2.8646
 20
4.8194
 30
0
 70
     0
  0
VERTEX
  8
LAYER1
 10
2.8646
 20
4.8056
 30
0
 70
     0
  0
VERTEX
  8
LAYER1
 10
2.8646
 20
4.8056
 30
0
 70
     0
  0
SEQEND
  0
LINE
  8
LAYER1
  6
CONTINUOUS
 62
     7
 10
2.8646
 20
4.8056
 30
0
 11
2.9479
 21
4.7361
 31
0
  0
POLYLINE
  8
LAYER1
  6
CONTINUOUS
 62
     7
 66
     1
 70
     0
 40
0.0078
 41
0.0078
  0
VERTEX
  8
LAYER1
 10
3.1146
 20
4.8056
 30
0
 70
     0
  0
VERTEX
  8
LAYER1
 10
3.1146
 20
4.8056
 30
0
 70
     0
  0
VERTEX
  8
LAYER1
 10
3.1285
 20
4.8194
 30
0
 70
     0
  0
VERTEX
  8
LAYER1
 10
3.1285
 20
4.8194
 30
0
 70
     0
  0
SEQEND
  0
LINE
  8
LAYER1
  6
CONTINUOUS
 62
     7
 10
3.1146
 20
4.8056
 30
0
 11
3.0312
 21
4.7361
 31
0
  0
POLYLINE
  8
LAYER1
  6
CONTINUOUS
 62
     7
 66
     1
 70
     0
 40
0.0078
 41
0.0078
  0
VERTEX
  8
LAYER1
 10
3.2951
 20
4.7361
 30
0
 70
     0
  0
VERTEX
  8
LAYER1
 10
3.2812
 20
4.7361
 30
0
 70
     0
  0
SEQEND
  0
POLYLINE
  8
LAYER1
  6
CONTINUOUS
 62
     7
 66
     1
 70
     0
 40
0.0078
 41
0.0078
  0
VERTEX
  8
LAYER1
 10
3.3646
 20
4.7361
 30
0
 70
     0
  0
VERTEX
  8
LAYER1
 10
3.3507
 20
4.7361
 30
0
 70
     0
  0
SEQEND
  0
LINE
  8
LAYER1
  6
CONTINUOUS
 62
     7
 10
3.2951
 20
4.7361
 30
0
 11
3.3507
 21
4.7361
 31
0
  0
POLYLINE
  8
LAYER1
  6
CONTINUOUS
 62
     7
 66
     1
 70
     0
 40
0.0078
 41
0.0078
  0
VERTEX
  8
LAYER1
 10
3.184
 20
4.8194
 30
0
 70
     0
  0
VERTEX
  8
LAYER1
 10
3.1979
 20
4.8194
 30
0
 70
     0
  0
VERTEX
  8
LAYER1
 10
3.1979
 20
4.8056
 30
0
 70
     0
  0
VERTEX
  8
LAYER1
 10
3.1979
 20
4.8056
 30
0
 70
     0
  0
SEQEND
  0
LINE
  8
LAYER1
  6
CONTINUOUS
 62
     7
 10
3.1979
 20
4.8056
 30
0
 11
3.2812
 21
4.7361
 31
0
  0
POLYLINE
  8
LAYER1
  6
CONTINUOUS
 62
     7
 66
     1
 70
     0
 40
0.0078
 41
0.0078
  0
VERTEX
  8
LAYER1
 10
3.4479
 20
4.8056
 30
0
 70
     0
  0
VERTEX
  8
LAYER1
 10
3.4479
 20
4.8056
 30
0
 70
     0
  0
VERTEX
  8
LAYER1
 10
3.4618
 20
4.8194
 30
0
 70
     0
  0
VERTEX
  8
LAYER1
 10
3.4618
 20
4.8194
 30
0
 70
     0
  0
SEQEND
  0
LINE
  8
LAYER1
  6
CONTINUOUS
 62
     7
 10
3.4479
 20
4.8056
 30
0
 11
3.3646
 21
4.7361
 31
0
  0
POLYLINE
  8
LAYER1
  6
CONTINUOUS
 62
     7
 66
     1
 70
     0
 40
0.0078
 41
0.0078
  0
VERTEX
  8
LAYER1
 10
3.6285
 20
4.7361
 30
0
 70
     0
  0
VERTEX
  8
LAYER1
 10
3.6146
 20
4.7361
 30
0
 70
     0
  0
SEQEND
  0
POLYLINE
  8
LAYER1
  6
CONTINUOUS
 62
     7
 66
     1
 70
     0
 40
0.0078
 41
0.0078
  0
VERTEX
  8
LAYER1
 10
3.6979
 20
4.7361
 30
0
 70
     0
  0
VERTEX
  8
LAYER1
 10
3.684
 20
4.7361
 30
0
 70
     0
  0
SEQEND
  0
LINE
  8
LAYER1
  6
CONTINUOUS
 62
     7
 10
3.6285
 20
4.7361
 30
0
 11
3.684
 21
4.7361
 31
0
  0
POLYLINE
  8
LAYER1
  6
CONTINUOUS
 62
     7
 66
     1
 70
     0
 40
0.0078
 41
0.0078
  0
VERTEX
  8
LAYER1
 10
3.5174
 20
4.8194
 30
0
 70
     0
  0
VERTEX
  8
LAYER1
 10
3.5312
 20
4.8194
 30
0
 70
     0
  0
VERTEX
  8
LAYER1
 10
3.5312
 20
4.8056
 30
0
 70
     0
  0
VERTEX
  8
LAYER1
 10
3.5312
 20
4.8056
 30
0
 70
     0
  0
SEQEND
  0
LINE
  8
LAYER1
  6
CONTINUOUS
 62
     7
 10
3.5312
 20
4.8056
 30
0
 11
3.6146
 21
4.7361
 31
0
  0
POLYLINE
  8
LAYER1
  6
CONTINUOUS
 62
     7
 66
     1
 70
     0
 40
0.0078
 41
0.0078
  0
VERTEX
  8
LAYER1
 10
3.7812
 20
4.8056
 30
0
 70
     0
  0
VERTEX
  8
LAYER1
 10
3.7812
 20
4.8056
 30
0
 70
     0
  0
VERTEX
  8
LAYER1
 10
3.7951
 20
4.8194
 30
0
 70
     0
  0
VERTEX
  8
LAYER1
 10
3.7951
 20
4.8194
 30
0
 70
     0
  0
SEQEND
  0
LINE
  8
LAYER1
  6
CONTINUOUS
 62
     7
 10
3.7812
 20
4.8056
 30
0
 11
3.6979
 21
4.7361
 31
0
  0
POLYLINE
  8
LAYER1
  6
CONTINUOUS
 62
     7
 66
     1
 70
     0
 40
0.0078
 41
0.0078
  0
VERTEX
  8
LAYER1
 10
3.9618
 20
4.7361
 30
0
 70
     0
  0
VERTEX
  8
LAYER1
 10
3.9479
 20
4.7361
 30
0
 70
     0
  0
SEQEND
  0
LINE
  8
LAYER1
  6
CONTINUOUS
 62
     7
 10
3.9618
 20
4.7361
 30
0
 11
4.0174
 21
4.7361
 31
0
  0
POLYLINE
  8
LAYER1
  6
CONTINUOUS
 62
     7
 66
     1
 70
     0
 40
0.0078
 41
0.0078
  0
VERTEX
  8
LAYER1
 10
3.8507
 20
4.8194
 30
0
 70
     0
  0
VERTEX
  8
LAYER1
 10
3.8646
 20
4.8194
 30
0
 70
     0
  0
VERTEX
  8
LAYER1
 10
3.8646
 20
4.8056
 30
0
 70
     0
  0
VERTEX
  8
LAYER1
 10
3.8646
 20
4.8056
 30
0
 70
     0
  0
SEQEND
  0
LINE
  8
LAYER1
  6
CONTINUOUS
 62
     7
 10
3.8646
 20
4.8056
 30
0
 11
3.9479
 21
4.7361
 31
0
  0
LINE
  8
LAYER1
  6
CONTINUOUS
 62
     7
 10
1.4618
 20
4.8194
 30
0
 11
1.5174
 21
4.8194
 31
0
  0
LINE
  8
LAYER1
  6
CONTINUOUS
 62
     7
 10
1.7951
 20
4.8194
 30
0
 11
1.8507
 21
4.8194
 31
0
  0
LINE
  8
LAYER1
  6
CONTINUOUS
 62
     7
 10
2.1285
 20
4.8194
 30
0
 11
2.184
 21
4.8194
 31
0
  0
LINE
  8
LAYER1
  6
CONTINUOUS
 62
     7
 10
2.4618
 20
4.8194
 30
0
 11
2.5174
 21
4.8194
 31
0
  0
LINE
  8
LAYER1
  6
CONTINUOUS
 62
     7
 10
2.7951
 20
4.8194
 30
0
 11
2.8507
 21
4.8194
 31
0
  0
LINE
  8
LAYER1
  6
CONTINUOUS
 62
     7
 10
3.1285
 20
4.8194
 30
0
 11
3.184
 21
4.8194
 31
0
  0
LINE
  8
LAYER1
  6
CONTINUOUS
 62
     7
 10
3.4618
 20
4.8194
 30
0
 11
3.5174
 21
4.8194
 31
0
  0
LINE
  8
LAYER1
  6
CONTINUOUS
 62
     7
 10
3.7951
 20
4.8194
 30
0
 11
3.8507
 21
4.8194
 31
0
  0
POLYLINE
  8
LAYER1
  6
CONTINUOUS
 62
     7
 66
     1
 70
     0
 40
0.0078
 41
0.0078
  0
VERTEX
  8
LAYER1
 10
4.0312
 20
4.7361
 30
0
 70
     0
  0
VERTEX
  8
LAYER1
 10
4.0174
 20
4.7361
 30
0
 70
     0
  0
SEQEND
  0
LINE
  8
LAYER1
  6
CONTINUOUS
 62
     7
 10
4.0729
 20
4.7778
 30
0
 11
4.0312
 21
4.7361
 31
0
  0
POLYLINE
  8
LAYER1
  6
CONTINUOUS
 62
     7
 66
     1
 70
     0
 40
0.0078
 41
0.0078
  0
VERTEX
  8
LAYER1
 10
1.2951
 20
4.7361
 30
0
 70
     0
  0
VERTEX
  8
LAYER1
 10
1.2812
 20
4.7361
 30
0
 70
     0
  0
SEQEND
  0
POLYLINE
  8
LAYER1
  6
CONTINUOUS
 62
     7
 66
     1
 70
     0
 40
0.0078
 41
0.0078
  0
VERTEX
  8
LAYER1
 10
1.3646
 20
4.7361
 30
0
 70
     0
  0
VERTEX
  8
LAYER1
 10
1.3507
 20
4.7361
 30
0
 70
     0
  0
SEQEND
  0
LINE
  8
LAYER1
  6
CONTINUOUS
 62
     7
 10
1.2951
 20
4.7361
 30
0
 11
1.3507
 21
4.7361
 31
0
  0
LINE
  8
LAYER1
  6
CONTINUOUS
 62
     7
 10
1.2396
 20
4.7778
 30
0
 11
1.2812
 21
4.7361
 31
0
  0
POLYLINE
  8
LAYER1
  6
CONTINUOUS
 62
     7
 66
     1
 70
     0
 40
0.0078
 41
0.0078
  0
VERTEX
  8
LAYER1
 10
1.4479
 20
4.8056
 30
0
 70
     0
  0
VERTEX
  8
LAYER1
 10
1.4479
 20
4.8056
 30
0
 70
     0
  0
VERTEX
  8
LAYER1
 10
1.4618
 20
4.8194
 30
0
 70
     0
  0
VERTEX
  8
LAYER1
 10
1.4618
 20
4.8194
 30
0
 70
     0
  0
SEQEND
  0
ENDBLK
  8
LAYER1
  0
BLOCK
  8
LAYER1
  2
Group12
 70
     0
 10
0
 20
0
 30
0
  0
LINE
  8
LAYER1
  6
CONTINUOUS
 62
     7
 10
1.4479
 20
4.8056
 30
0
 11
1.3646
 21
4.7361
 31
0
  0
POLYLINE
  8
LAYER1
  6
CONTINUOUS
 62
     7
 66
     1
 70
     0
 40
0.0078
 41
0.0078
  0
VERTEX
  8
LAYER1
 10
1.4062
 20
3.9167
 30
0
 70
     0
  0
VERTEX
  8
LAYER1
 10
1.4201
 20
3.9167
 30
0
 70
     0
  0
SEQEND
  0
POLYLINE
  8
LAYER1
  6
CONTINUOUS
 62
     7
 66
     1
 70
     0
 40
0.0078
 41
0.0078
  0
VERTEX
  8
LAYER1
 10
1.3368
 20
3.8472
 30
0
 70
     0
  0
VERTEX
  8
LAYER1
 10
1.3229
 20
3.8333
 30
0
 70
     0
  0
SEQEND
  0
LINE
  8
LAYER1
  6
CONTINUOUS
 62
     7
 10
1.4062
 20
3.9167
 30
0
 11
1.3368
 21
3.8472
 31
0
  0
POLYLINE
  8
LAYER1
  6
CONTINUOUS
 62
     7
 66
     1
 70
     0
 40
0.0078
 41
0.0078
  0
VERTEX
  8
LAYER1
 10
1.2674
 20
3.8333
 30
0
 70
     0
  0
VERTEX
  8
LAYER1
 10
1.2535
 20
3.8472
 30
0
 70
     0
  0
SEQEND
  0
LINE
  8
LAYER1
  6
CONTINUOUS
 62
     7
 10
1.2674
 20
3.8333
 30
0
 11
1.3229
 21
3.8333
 31
0
  0
POLYLINE
  8
LAYER1
  6
CONTINUOUS
 62
     7
 66
     1
 70
     0
 40
0.0078
 41
0.0078
  0
VERTEX
  8
LAYER1
 10
1.4757
 20
3.9167
 30
0
 70
     0
  0
VERTEX
  8
LAYER1
 10
1.4896
 20
3.9167
 30
0
 70
     0
  0
SEQEND
  0
POLYLINE
  8
LAYER1
  6
CONTINUOUS
 62
     7
 66
     1
 70
     0
 40
0.0078
 41
0.0078
  0
VERTEX
  8
LAYER1
 10
1.7118
 20
3.9167
 30
0
 70
     0
  0
VERTEX
  8
LAYER1
 10
1.7257
 20
3.9167
 30
0
 70
     0
  0
SEQEND
  0
POLYLINE
  8
LAYER1
  6
CONTINUOUS
 62
     7
 66
     1
 70
     0
 40
0.0078
 41
0.0078
  0
VERTEX
  8
LAYER1
 10
1.6424
 20
3.8472
 30
0
 70
     0
  0
VERTEX
  8
LAYER1
 10
1.6285
 20
3.8333
 30
0
 70
     0
  0
VERTEX
  8
LAYER1
 10
1.6285
 20
3.8333
 30
0
 70
     0
  0
VERTEX
  8
LAYER1
 10
1.6146
 20
3.8333
 30
0
 70
     0
  0
SEQEND
  0
LINE
  8
LAYER1
  6
CONTINUOUS
 62
     7
 10
1.7118
 20
3.9167
 30
0
 11
1.6424
 21
3.8472
 31
0
  0
POLYLINE
  8
LAYER1
  6
CONTINUOUS
 62
     7
 66
     1
 70
     0
 40
0.0078
 41
0.0078
  0
VERTEX
  8
LAYER1
 10
1.5729
 20
3.8333
 30
0
 70
     0
  0
VERTEX
  8
LAYER1
 10
1.559
 20
3.8472
 30
0
 70
     0
  0
SEQEND
  0
LINE
  8
LAYER1
  6
CONTINUOUS
 62
     7
 10
1.5729
 20
3.8333
 30
0
 11
1.6146
 21
3.8333
 31
0
  0
LINE
  8
LAYER1
  6
CONTINUOUS
 62
     7
 10
1.4896
 20
3.9167
 30
0
 11
1.559
 21
3.8472
 31
0
  0
POLYLINE
  8
LAYER1
  6
CONTINUOUS
 62
     7
 66
     1
 70
     0
 40
0.0078
 41
0.0078
  0
VERTEX
  8
LAYER1
 10
1.7812
 20
3.9167
 30
0
 70
     0
  0
VERTEX
  8
LAYER1
 10
1.7951
 20
3.9167
 30
0
 70
     0
  0
SEQEND
  0
POLYLINE
  8
LAYER1
  6
CONTINUOUS
 62
     7
 66
     1
 70
     0
 40
0.0078
 41
0.0078
  0
VERTEX
  8
LAYER1
 10
2.0035
 20
3.9167
 30
0
 70
     0
  0
VERTEX
  8
LAYER1
 10
2.0174
 20
3.9167
 30
0
 70
     0
  0
SEQEND
  0
POLYLINE
  8
LAYER1
  6
CONTINUOUS
 62
     7
 66
     1
 70
     0
 40
0.0078
 41
0.0078
  0
VERTEX
  8
LAYER1
 10
1.934
 20
3.8472
 30
0
 70
     0
  0
VERTEX
  8
LAYER1
 10
1.934
 20
3.8333
 30
0
 70
     0
  0
VERTEX
  8
LAYER1
 10
1.934
 20
3.8333
 30
0
 70
     0
  0
VERTEX
  8
LAYER1
 10
1.9201
 20
3.8333
 30
0
 70
     0
  0
SEQEND
  0
LINE
  8
LAYER1
  6
CONTINUOUS
 62
     7
 10
2.0035
 20
3.9167
 30
0
 11
1.934
 21
3.8472
 31
0
  0
POLYLINE
  8
LAYER1
  6
CONTINUOUS
 62
     7
 66
     1
 70
     0
 40
0.0078
 41
0.0078
  0
VERTEX
  8
LAYER1
 10
1.8785
 20
3.8333
 30
0
 70
     0
  0
VERTEX
  8
LAYER1
 10
1.8785
 20
3.8333
 30
0
 70
     0
  0
VERTEX
  8
LAYER1
 10
1.8646
 20
3.8333
 30
0
 70
     0
  0
VERTEX
  8
LAYER1
 10
1.8646
 20
3.8472
 30
0
 70
     0
  0
SEQEND
  0
LINE
  8
LAYER1
  6
CONTINUOUS
 62
     7
 10
1.8785
 20
3.8333
 30
0
 11
1.9201
 21
3.8333
 31
0
  0
LINE
  8
LAYER1
  6
CONTINUOUS
 62
     7
 10
1.7951
 20
3.9167
 30
0
 11
1.8646
 21
3.8472
 31
0
  0
POLYLINE
  8
LAYER1
  6
CONTINUOUS
 62
     7
 66
     1
 70
     0
 40
0.0078
 41
0.0078
  0
VERTEX
  8
LAYER1
 10
2.0729
 20
3.9167
 30
0
 70
     0
  0
VERTEX
  8
LAYER1
 10
2.0868
 20
3.9167
 30
0
 70
     0
  0
VERTEX
  8
LAYER1
 10
2.1007
 20
3.9167
 30
0
 70
     0
  0
VERTEX
  8
LAYER1
 10
2.1007
 20
3.9167
 30
0
 70
     0
  0
SEQEND
  0
POLYLINE
  8
LAYER1
  6
CONTINUOUS
 62
     7
 66
     1
 70
     0
 40
0.0078
 41
0.0078
  0
VERTEX
  8
LAYER1
 10
2.309
 20
3.9167
 30
0
 70
     0
  0
VERTEX
  8
LAYER1
 10
2.3229
 20
3.9167
 30
0
 70
     0
  0
SEQEND
  0
POLYLINE
  8
LAYER1
  6
CONTINUOUS
 62
     7
 66
     1
 70
     0
 40
0.0078
 41
0.0078
  0
VERTEX
  8
LAYER1
 10
2.2396
 20
3.8472
 30
0
 70
     0
  0
VERTEX
  8
LAYER1
 10
2.2396
 20
3.8333
 30
0
 70
     0
  0
VERTEX
  8
LAYER1
 10
2.2396
 20
3.8333
 30
0
 70
     0
  0
VERTEX
  8
LAYER1
 10
2.2257
 20
3.8333
 30
0
 70
     0
  0
SEQEND
  0
LINE
  8
LAYER1
  6
CONTINUOUS
 62
     7
 10
2.309
 20
3.9167
 30
0
 11
2.2396
 21
3.8472
 31
0
  0
POLYLINE
  8
LAYER1
  6
CONTINUOUS
 62
     7
 66
     1
 70
     0
 40
0.0078
 41
0.0078
  0
VERTEX
  8
LAYER1
 10
2.184
 20
3.8333
 30
0
 70
     0
  0
VERTEX
  8
LAYER1
 10
2.184
 20
3.8333
 30
0
 70
     0
  0
VERTEX
  8
LAYER1
 10
2.1701
 20
3.8333
 30
0
 70
     0
  0
VERTEX
  8
LAYER1
 10
2.1701
 20
3.8472
 30
0
 70
     0
  0
SEQEND
  0
LINE
  8
LAYER1
  6
CONTINUOUS
 62
     7
 10
2.184
 20
3.8333
 30
0
 11
2.2257
 21
3.8333
 31
0
  0
LINE
  8
LAYER1
  6
CONTINUOUS
 62
     7
 10
2.1007
 20
3.9167
 30
0
 11
2.1701
 21
3.8472
 31
0
  0
POLYLINE
  8
LAYER1
  6
CONTINUOUS
 62
     7
 66
     1
 70
     0
 40
0.0078
 41
0.0078
  0
VERTEX
  8
LAYER1
 10
2.3785
 20
3.9167
 30
0
 70
     0
  0
VERTEX
  8
LAYER1
 10
2.3924
 20
3.9167
 30
0
 70
     0
  0
SEQEND
  0
POLYLINE
  8
LAYER1
  6
CONTINUOUS
 62
     7
 66
     1
 70
     0
 40
0.0078
 41
0.0078
  0
VERTEX
  8
LAYER1
 10
2.6146
 20
3.9167
 30
0
 70
     0
  0
VERTEX
  8
LAYER1
 10
2.6285
 20
3.9167
 30
0
 70
     0
  0
SEQEND
  0
POLYLINE
  8
LAYER1
  6
CONTINUOUS
 62
     7
 66
     1
 70
     0
 40
0.0078
 41
0.0078
  0
VERTEX
  8
LAYER1
 10
2.5451
 20
3.8472
 30
0
 70
     0
  0
VERTEX
  8
LAYER1
 10
2.5312
 20
3.8333
 30
0
 70
     0
  0
SEQEND
  0
LINE
  8
LAYER1
  6
CONTINUOUS
 62
     7
 10
2.6146
 20
3.9167
 30
0
 11
2.5451
 21
3.8472
 31
0
  0
POLYLINE
  8
LAYER1
  6
CONTINUOUS
 62
     7
 66
     1
 70
     0
 40
0.0078
 41
0.0078
  0
VERTEX
  8
LAYER1
 10
2.4757
 20
3.8333
 30
0
 70
     0
  0
VERTEX
  8
LAYER1
 10
2.4618
 20
3.8472
 30
0
 70
     0
  0
SEQEND
  0
LINE
  8
LAYER1
  6
CONTINUOUS
 62
     7
 10
2.4757
 20
3.8333
 30
0
 11
2.5312
 21
3.8333
 31
0
  0
LINE
  8
LAYER1
  6
CONTINUOUS
 62
     7
 10
2.3924
 20
3.9167
 30
0
 11
2.4618
 21
3.8472
 31
0
  0
POLYLINE
  8
LAYER1
  6
CONTINUOUS
 62
     7
 66
     1
 70
     0
 40
0.0078
 41
0.0078
  0
VERTEX
  8
LAYER1
 10
2.684
 20
3.9167
 30
0
 70
     0
  0
VERTEX
  8
LAYER1
 10
2.6979
 20
3.9167
 30
0
 70
     0
  0
SEQEND
  0
POLYLINE
  8
LAYER1
  6
CONTINUOUS
 62
     7
 66
     1
 70
     0
 40
0.0078
 41
0.0078
  0
VERTEX
  8
LAYER1
 10
2.9201
 20
3.9167
 30
0
 70
     0
  0
VERTEX
  8
LAYER1
 10
2.934
 20
3.9167
 30
0
 70
     0
  0
SEQEND
  0
POLYLINE
  8
LAYER1
  6
CONTINUOUS
 62
     7
 66
     1
 70
     0
 40
0.0078
 41
0.0078
  0
VERTEX
  8
LAYER1
 10
2.8507
 20
3.8472
 30
0
 70
     0
  0
VERTEX
  8
LAYER1
 10
2.8368
 20
3.8333
 30
0
 70
     0
  0
VERTEX
  8
LAYER1
 10
2.8368
 20
3.8333
 30
0
 70
     0
  0
VERTEX
  8
LAYER1
 10
2.8229
 20
3.8333
 30
0
 70
     0
  0
SEQEND
  0
LINE
  8
LAYER1
  6
CONTINUOUS
 62
     7
 10
2.9201
 20
3.9167
 30
0
 11
2.8507
 21
3.8472
 31
0
  0
POLYLINE
  8
LAYER1
  6
CONTINUOUS
 62
     7
 66
     1
 70
     0
 40
0.0078
 41
0.0078
  0
VERTEX
  8
LAYER1
 10
2.7812
 20
3.8333
 30
0
 70
     0
  0
VERTEX
  8
LAYER1
 10
2.7674
 20
3.8472
 30
0
 70
     0
  0
SEQEND
  0
LINE
  8
LAYER1
  6
CONTINUOUS
 62
     7
 10
2.7812
 20
3.8333
 30
0
 11
2.8229
 21
3.8333
 31
0
  0
LINE
  8
LAYER1
  6
CONTINUOUS
 62
     7
 10
2.6979
 20
3.9167
 30
0
 11
2.7674
 21
3.8472
 31
0
  0
POLYLINE
  8
LAYER1
  6
CONTINUOUS
 62
     7
 66
     1
 70
     0
 40
0.0078
 41
0.0078
  0
VERTEX
  8
LAYER1
 10
2.9896
 20
3.9167
 30
0
 70
     0
  0
VERTEX
  8
LAYER1
 10
3.0035
 20
3.9167
 30
0
 70
     0
  0
SEQEND
  0
POLYLINE
  8
LAYER1
  6
CONTINUOUS
 62
     7
 66
     1
 70
     0
 40
0.0078
 41
0.0078
  0
VERTEX
  8
LAYER1
 10
3.2118
 20
3.9167
 30
0
 70
     0
  0
VERTEX
  8
LAYER1
 10
3.2257
 20
3.9167
 30
0
 70
     0
  0
SEQEND
  0
POLYLINE
  8
LAYER1
  6
CONTINUOUS
 62
     7
 66
     1
 70
     0
 40
0.0078
 41
0.0078
  0
VERTEX
  8
LAYER1
 10
3.1424
 20
3.8472
 30
0
 70
     0
  0
VERTEX
  8
LAYER1
 10
3.1424
 20
3.8333
 30
0
 70
     0
  0
VERTEX
  8
LAYER1
 10
3.1424
 20
3.8333
 30
0
 70
     0
  0
VERTEX
  8
LAYER1
 10
3.1285
 20
3.8333
 30
0
 70
     0
  0
SEQEND
  0
LINE
  8
LAYER1
  6
CONTINUOUS
 62
     7
 10
3.2118
 20
3.9167
 30
0
 11
3.1424
 21
3.8472
 31
0
  0
POLYLINE
  8
LAYER1
  6
CONTINUOUS
 62
     7
 66
     1
 70
     0
 40
0.0078
 41
0.0078
  0
VERTEX
  8
LAYER1
 10
3.0868
 20
3.8333
 30
0
 70
     0
  0
VERTEX
  8
LAYER1
 10
3.0868
 20
3.8333
 30
0
 70
     0
  0
VERTEX
  8
LAYER1
 10
3.0729
 20
3.8333
 30
0
 70
     0
  0
VERTEX
  8
LAYER1
 10
3.0729
 20
3.8472
 30
0
 70
     0
  0
SEQEND
  0
LINE
  8
LAYER1
  6
CONTINUOUS
 62
     7
 10
3.0868
 20
3.8333
 30
0
 11
3.1285
 21
3.8333
 31
0
  0
LINE
  8
LAYER1
  6
CONTINUOUS
 62
     7
 10
3.0035
 20
3.9167
 30
0
 11
3.0729
 21
3.8472
 31
0
  0
POLYLINE
  8
LAYER1
  6
CONTINUOUS
 62
     7
 66
     1
 70
     0
 40
0.0078
 41
0.0078
  0
VERTEX
  8
LAYER1
 10
3.2812
 20
3.9167
 30
0
 70
     0
  0
VERTEX
  8
LAYER1
 10
3.2951
 20
3.9167
 30
0
 70
     0
  0
VERTEX
  8
LAYER1
 10
3.309
 20
3.9167
 30
0
 70
     0
  0
VERTEX
  8
LAYER1
 10
3.309
 20
3.9167
 30
0
 70
     0
  0
SEQEND
  0
POLYLINE
  8
LAYER1
  6
CONTINUOUS
 62
     7
 66
     1
 70
     0
 40
0.0078
 41
0.0078
  0
VERTEX
  8
LAYER1
 10
3.5174
 20
3.9167
 30
0
 70
     0
  0
VERTEX
  8
LAYER1
 10
3.5312
 20
3.9167
 30
0
 70
     0
  0
SEQEND
  0
POLYLINE
  8
LAYER1
  6
CONTINUOUS
 62
     7
 66
     1
 70
     0
 40
0.0078
 41
0.0078
  0
VERTEX
  8
LAYER1
 10
3.4479
 20
3.8472
 30
0
 70
     0
  0
VERTEX
  8
LAYER1
 10
3.4479
 20
3.8333
 30
0
 70
     0
  0
VERTEX
  8
LAYER1
 10
3.4479
 20
3.8333
 30
0
 70
     0
  0
VERTEX
  8
LAYER1
 10
3.434
 20
3.8333
 30
0
 70
     0
  0
SEQEND
  0
LINE
  8
LAYER1
  6
CONTINUOUS
 62
     7
 10
3.5174
 20
3.9167
 30
0
 11
3.4479
 21
3.8472
 31
0
  0
POLYLINE
  8
LAYER1
  6
CONTINUOUS
 62
     7
 66
     1
 70
     0
 40
0.0078
 41
0.0078
  0
VERTEX
  8
LAYER1
 10
3.3924
 20
3.8333
 30
0
 70
     0
  0
VERTEX
  8
LAYER1
 10
3.3924
 20
3.8333
 30
0
 70
     0
  0
VERTEX
  8
LAYER1
 10
3.3785
 20
3.8333
 30
0
 70
     0
  0
VERTEX
  8
LAYER1
 10
3.3785
 20
3.8472
 30
0
 70
     0
  0
SEQEND
  0
LINE
  8
LAYER1
  6
CONTINUOUS
 62
     7
 10
3.3924
 20
3.8333
 30
0
 11
3.434
 21
3.8333
 31
0
  0
LINE
  8
LAYER1
  6
CONTINUOUS
 62
     7
 10
3.309
 20
3.9167
 30
0
 11
3.3785
 21
3.8472
 31
0
  0
POLYLINE
  8
LAYER1
  6
CONTINUOUS
 62
     7
 66
     1
 70
     0
 40
0.0078
 41
0.0078
  0
VERTEX
  8
LAYER1
 10
3.5868
 20
3.9167
 30
0
 70
     0
  0
VERTEX
  8
LAYER1
 10
3.6007
 20
3.9167
 30
0
 70
     0
  0
SEQEND
  0
POLYLINE
  8
LAYER1
  6
CONTINUOUS
 62
     7
 66
     1
 70
     0
 40
0.0078
 41
0.0078
  0
VERTEX
  8
LAYER1
 10
3.8229
 20
3.9167
 30
0
 70
     0
  0
VERTEX
  8
LAYER1
 10
3.8368
 20
3.9167
 30
0
 70
     0
  0
SEQEND
  0
POLYLINE
  8
LAYER1
  6
CONTINUOUS
 62
     7
 66
     1
 70
     0
 40
0.0078
 41
0.0078
  0
VERTEX
  8
LAYER1
 10
3.7535
 20
3.8472
 30
0
 70
     0
  0
VERTEX
  8
LAYER1
 10
3.7396
 20
3.8333
 30
0
 70
     0
  0
SEQEND
  0
LINE
  8
LAYER1
  6
CONTINUOUS
 62
     7
 10
3.8229
 20
3.9167
 30
0
 11
3.7535
 21
3.8472
 31
0
  0
POLYLINE
  8
LAYER1
  6
CONTINUOUS
 62
     7
 66
     1
 70
     0
 40
0.0078
 41
0.0078
  0
VERTEX
  8
LAYER1
 10
3.684
 20
3.8333
 30
0
 70
     0
  0
VERTEX
  8
LAYER1
 10
3.6701
 20
3.8472
 30
0
 70
     0
  0
SEQEND
  0
LINE
  8
LAYER1
  6
CONTINUOUS
 62
     7
 10
3.684
 20
3.8333
 30
0
 11
3.7396
 21
3.8333
 31
0
  0
LINE
  8
LAYER1
  6
CONTINUOUS
 62
     7
 10
3.6007
 20
3.9167
 30
0
 11
3.6701
 21
3.8472
 31
0
  0
POLYLINE
  8
LAYER1
  6
CONTINUOUS
 62
     7
 66
     1
 70
     0
 40
0.0078
 41
0.0078
  0
VERTEX
  8
LAYER1
 10
3.8924
 20
3.9167
 30
0
 70
     0
  0
VERTEX
  8
LAYER1
 10
3.9062
 20
3.9167
 30
0
 70
     0
  0
SEQEND
  0
POLYLINE
  8
LAYER1
  6
CONTINUOUS
 62
     7
 66
     1
 70
     0
 40
0.0078
 41
0.0078
  0
VERTEX
  8
LAYER1
 10
3.9896
 20
3.8333
 30
0
 70
     0
  0
VERTEX
  8
LAYER1
 10
3.9757
 20
3.8472
 30
0
 70
     0
  0
SEQEND
  0
LINE
  8
LAYER1
  6
CONTINUOUS
 62
     7
 10
3.9896
 20
3.8333
 30
0
 11
4.0312
 21
3.8333
 31
0
  0
LINE
  8
LAYER1
  6
CONTINUOUS
 62
     7
 10
3.9062
 20
3.9167
 30
0
 11
3.9757
 21
3.8472
 31
0
  0
LINE
  8
LAYER1
  6
CONTINUOUS
 62
     7
 10
1.4201
 20
3.9167
 30
0
 11
1.4757
 21
3.9167
 31
0
  0
LINE
  8
LAYER1
  6
CONTINUOUS
 62
     7
 10
1.7257
 20
3.9167
 30
0
 11
1.7812
 21
3.9167
 31
0
  0
LINE
  8
LAYER1
  6
CONTINUOUS
 62
     7
 10
2.0174
 20
3.9167
 30
0
 11
2.0729
 21
3.9167
 31
0
  0
LINE
  8
LAYER1
  6
CONTINUOUS
 62
     7
 10
2.3229
 20
3.9167
 30
0
 11
2.3785
 21
3.9167
 31
0
  0
LINE
  8
LAYER1
  6
CONTINUOUS
 62
     7
 10
2.6285
 20
3.9167
 30
0
 11
2.684
 21
3.9167
 31
0
  0
LINE
  8
LAYER1
  6
CONTINUOUS
 62
     7
 10
2.934
 20
3.9167
 30
0
 11
2.9896
 21
3.9167
 31
0
  0
LINE
  8
LAYER1
  6
CONTINUOUS
 62
     7
 10
3.2257
 20
3.9167
 30
0
 11
3.2812
 21
3.9167
 31
0
  0
LINE
  8
LAYER1
  6
CONTINUOUS
 62
     7
 10
3.5312
 20
3.9167
 30
0
 11
3.5868
 21
3.9167
 31
0
  0
LINE
  8
LAYER1
  6
CONTINUOUS
 62
     7
 10
3.8368
 20
3.9167
 30
0
 11
3.8924
 21
3.9167
 31
0
  0
POLYLINE
  8
LAYER1
  6
CONTINUOUS
 62
     7
 66
     1
 70
     0
 40
0.0078
 41
0.0078
  0
VERTEX
  8
LAYER1
 10
4.059
 20
3.8472
 30
0
 70
     0
  0
VERTEX
  8
LAYER1
 10
4.0451
 20
3.8333
 30
0
 70
     0
  0
VERTEX
  8
LAYER1
 10
4.0451
 20
3.8333
 30
0
 70
     0
  0
VERTEX
  8
LAYER1
 10
4.0312
 20
3.8333
 30
0
 70
     0
  0
SEQEND
  0
LINE
  8
LAYER1
  6
CONTINUOUS
 62
     7
 10
1.2257
 20
3.875
 30
0
 11
1.2535
 21
3.8472
 31
0
  0
ENDBLK
  8
LAYER1
  0
BLOCK
  8
LAYER1
  2
Group13
 70
     0
 10
0
 20
0
 30
0
  0
LINE
  8
LAYER1
  6
CONTINUOUS
 62
     7
 10
1.8368
 20
2.9444
 30
0
 11
2.0035
 21
2.6944
 31
0
  0
LINE
  8
LAYER1
  6
CONTINUOUS
 62
     7
 10
2.1701
 20
2.7361
 30
0
 11
2.1979
 21
2.6944
 31
0
  0
LINE
  8
LAYER1
  6
CONTINUOUS
 62
     7
 10
2.1701
 20
2.7361
 30
0
 11
2.1424
 21
2.6944
 31
0
  0
LINE
  8
LAYER1
  6
CONTINUOUS
 62
     7
 10
2.1979
 20
2.6944
 30
0
 11
2.3368
 21
2.6944
 31
0
  0
ENDBLK
  8
LAYER1
  0
BLOCK
  8
LAYER1
  2
Group14
 70
     0
 10
0
 20
0
 30
0
  0
POLYLINE
  8
LAYER1
  6
CONTINUOUS
 62
     7
 66
     1
 70
     0
 40
0.0078
 41
0.0078
  0
VERTEX
  8
LAYER1
 10
1.1979
 20
2.6944
 30
0
 70
     0
  0
VERTEX
  8
LAYER1
 10
1.3368
 20
2.6944
 30
0
 70
     0
  0
VERTEX
  8
LAYER1
 10
1.5035
 20
2.9444
 30
0
 70
     0
  0
SEQEND
  0
POLYLINE
  8
LAYER1
  6
CONTINUOUS
 62
     7
 66
     1
 70
     0
 40
0.0078
 41
0.0078
  0
VERTEX
  8
LAYER1
 10
1.6701
 20
2.9167
 30
0
 70
     0
  0
VERTEX
  8
LAYER1
 10
1.6979
 20
2.9444
 30
0
 70
     0
  0
VERTEX
  8
LAYER1
 10
1.8368
 20
2.9444
 30
0
 70
     0
  0
SEQEND
  0
LINE
  8
LAYER1
  6
CONTINUOUS
 62
     7
 10
2.6701
 20
2.9167
 30
0
 11
2.6424
 21
2.9444
 31
0
  0
LINE
  8
LAYER1
  6
CONTINUOUS
 62
     7
 10
2.5035
 20
2.9444
 30
0
 11
2.6424
 21
2.9444
 31
0
  0
INSERT
  8
LAYER1
  2
Group13
 10
0
 20
0
 30
0
  0
LINE
  8
LAYER1
  6
CONTINUOUS
 62
     7
 10
2.0035
 20
2.6944
 30
0
 11
2.1424
 21
2.6944
 31
0
  0
ENDBLK
  8
LAYER1
  0
BLOCK
  8
LAYER1
  2
Group15
 70
     0
 10
0
 20
0
 30
0
  0
LINE
  8
LAYER1
  6
CONTINUOUS
 62
     7
 10
2.8368
 20
2.9444
 30
0
 11
3.0035
 21
2.6944
 31
0
  0
LINE
  8
LAYER1
  6
CONTINUOUS
 62
     7
 10
3.1701
 20
2.7361
 30
0
 11
3.1979
 21
2.6944
 31
0
  0
LINE
  8
LAYER1
  6
CONTINUOUS
 62
     7
 10
3.1701
 20
2.7361
 30
0
 11
3.1424
 21
2.6944
 31
0
  0
LINE
  8
LAYER1
  6
CONTINUOUS
 62
     7
 10
3.1979
 20
2.6944
 30
0
 11
3.3368
 21
2.6944
 31
0
  0
ENDBLK
  8
LAYER1
  0
BLOCK
  8
LAYER1
  2
Group16
 70
     0
 10
0
 20
0
 30
0
  0
LINE
  8
LAYER1
  6
CONTINUOUS
 62
     7
 10
2.3368
 20
2.6944
 30
0
 11
2.5035
 21
2.9444
 31
0
  0
POLYLINE
  8
LAYER1
  6
CONTINUOUS
 62
     7
 66
     1
 70
     0
 40
0.0078
 41
0.0078
  0
VERTEX
  8
LAYER1
 10
2.6701
 20
2.9167
 30
0
 70
     0
  0
VERTEX
  8
LAYER1
 10
2.6979
 20
2.9444
 30
0
 70
     0
  0
VERTEX
  8
LAYER1
 10
2.8368
 20
2.9444
 30
0
 70
     0
  0
SEQEND
  0
LINE
  8
LAYER1
  6
CONTINUOUS
 62
     7
 10
3.6701
 20
2.9167
 30
0
 11
3.6424
 21
2.9444
 31
0
  0
LINE
  8
LAYER1
  6
CONTINUOUS
 62
     7
 10
3.5035
 20
2.9444
 30
0
 11
3.6424
 21
2.9444
 31
0
  0
INSERT
  8
LAYER1
  2
Group15
 10
0
 20
0
 30
0
  0
LINE
  8
LAYER1
  6
CONTINUOUS
 62
     7
 10
3.0035
 20
2.6944
 30
0
 11
3.1424
 21
2.6944
 31
0
  0
ENDBLK
  8
LAYER1
  0
BLOCK
  8
LAYER1
  2
Group17
 70
     0
 10
0
 20
0
 30
0
  0
LINE
  8
LAYER1
  6
CONTINUOUS
 62
     7
 10
4.0868
 20
3.875
 30
0
 11
4.059
 21
3.8472
 31
0
  0
LINE
  8
LAYER1
  6
CONTINUOUS
 62
     7
 10
1.6701
 20
2.9167
 30
0
 11
1.6424
 21
2.9444
 31
0
  0
LINE
  8
LAYER1
  6
CONTINUOUS
 62
     7
 10
1.5035
 20
2.9444
 30
0
 11
1.6424
 21
2.9444
 31
0
  0
INSERT
  8
LAYER1
  2
Group14
 10
0
 20
0
 30
0
  0
INSERT
  8
LAYER1
  2
Group16
 10
0
 20
0
 30
0
  0
LINE
  8
LAYER1
  6
CONTINUOUS
 62
     7
 10
3.3368
 20
2.6944
 30
0
 11
3.5035
 21
2.9444
 31
0
  0
POLYLINE
  8
LAYER1
  6
CONTINUOUS
 62
     7
 66
     1
 70
     0
 40
0.0078
 41
0.0078
  0
VERTEX
  8
LAYER1
 10
3.6701
 20
2.9167
 30
0
 70
     0
  0
VERTEX
  8
LAYER1
 10
3.6979
 20
2.9444
 30
0
 70
     0
  0
VERTEX
  8
LAYER1
 10
3.8368
 20
2.9444
 30
0
 70
     0
  0
VERTEX
  8
LAYER1
 10
4.0035
 20
2.6944
 30
0
 70
     0
  0
SEQEND
  0
LINE
  8
LAYER1
  6
CONTINUOUS
 62
     7
 10
4.1701
 20
2.7361
 30
0
 11
4.1562
 21
2.6944
 31
0
  0
LINE
  8
LAYER1
  6
CONTINUOUS
 62
     7
 10
4.0035
 20
2.6944
 30
0
 11
4.1562
 21
2.6944
 31
0
  0
POLYLINE
  8
LAYER1
  6
CONTINUOUS
 62
     7
 66
     1
 70
     0
 40
0.0078
 41
0.0078
  0
VERTEX
  8
LAYER1
 10
1.1562
 20
2.7361
 30
0
 70
     0
  0
VERTEX
  8
LAYER1
 10
1.1562
 20
2.75
 30
0
 70
     0
  0
VERTEX
  8
LAYER1
 10
1.1701
 20
2.75
 30
0
 70
     0
  0
VERTEX
  8
LAYER1
 10
1.184
 20
2.75
 30
0
 70
     0
  0
VERTEX
  8
LAYER1
 10
1.184
 20
2.7361
 30
0
 70
     0
  0
SEQEND
  0
LINE
  8
LAYER1
  6
CONTINUOUS
 62
     7
 10
1.1562
 20
2.7361
 30
0
 11
1.1424
 21
2.6944
 31
0
  0
ENDBLK
  8
LAYER1
  0
BLOCK
  8
LAYER1
  2
Group18
 70
     0
 10
0
 20
0
 30
0
  0
LINE
  8
LAYER1
  6
CONTINUOUS
 62
     7
 10
3.3368
 20
1.5556
 30
0
 11
3.5035
 21
1.7222
 31
0
  0
LINE
  8
LAYER1
  6
CONTINUOUS
 62
     7
 10
1.6701
 20
1.6944
 30
0
 11
1.6424
 21
1.7222
 31
0
  0
LINE
  8
LAYER1
  6
CONTINUOUS
 62
     7
 10
1.5035
 20
1.7222
 30
0
 11
1.6424
 21
1.7222
 31
0
  0
POLYLINE
  8
LAYER1
  6
CONTINUOUS
 62
     7
 66
     1
 70
     0
 40
0.0078
 41
0.0078
  0
VERTEX
  8
LAYER1
 10
1.6701
 20
1.6944
 30
0
 70
     0
  0
VERTEX
  8
LAYER1
 10
1.6979
 20
1.7222
 30
0
 70
     0
  0
VERTEX
  8
LAYER1
 10
1.8368
 20
1.7222
 30
0
 70
     0
  0
SEQEND
  0
LINE
  8
LAYER1
  6
CONTINUOUS
 62
     7
 10
2.6701
 20
1.6944
 30
0
 11
2.6424
 21
1.7222
 31
0
  0
LINE
  8
LAYER1
  6
CONTINUOUS
 62
     7
 10
2.5035
 20
1.7222
 30
0
 11
2.6424
 21
1.7222
 31
0
  0
POLYLINE
  8
LAYER1
  6
CONTINUOUS
 62
     7
 66
     1
 70
     0
 40
0.0078
 41
0.0078
  0
VERTEX
  8
LAYER1
 10
2.6701
 20
1.6944
 30
0
 70
     0
  0
VERTEX
  8
LAYER1
 10
2.6979
 20
1.7222
 30
0
 70
     0
  0
VERTEX
  8
LAYER1
 10
2.8368
 20
1.7222
 30
0
 70
     0
  0
SEQEND
  0
LINE
  8
LAYER1
  6
CONTINUOUS
 62
     7
 10
3.6701
 20
1.6944
 30
0
 11
3.6424
 21
1.7222
 31
0
  0
LINE
  8
LAYER1
  6
CONTINUOUS
 62
     7
 10
3.5035
 20
1.7222
 30
0
 11
3.6424
 21
1.7222
 31
0
  0
ENDBLK
  8
LAYER1
  0
BLOCK
  8
LAYER1
  2
Group19
 70
     0
 10
0
 20
0
 30
0
  0
LINE
  8
LAYER1
  6
CONTINUOUS
 62
     7
 10
1.184
 20
2.7361
 30
0
 11
1.1979
 21
2.6944
 31
0
  0
POLYLINE
  8
LAYER1
  6
CONTINUOUS
 62
     7
 66
     1
 70
     0
 40
0.0078
 41
0.0078
  0
VERTEX
  8
LAYER1
 10
1.1979
 20
1.5556
 30
0
 70
     0
  0
VERTEX
  8
LAYER1
 10
1.3368
 20
1.5556
 30
0
 70
     0
  0
VERTEX
  8
LAYER1
 10
1.5035
 20
1.7222
 30
0
 70
     0
  0
SEQEND
  0
LINE
  8
LAYER1
  6
CONTINUOUS
 62
     7
 10
1.8368
 20
1.7222
 30
0
 11
2.0035
 21
1.5556
 31
0
  0
LINE
  8
LAYER1
  6
CONTINUOUS
 62
     7
 10
2.1701
 20
1.5833
 30
0
 11
2.1979
 21
1.5556
 31
0
  0
LINE
  8
LAYER1
  6
CONTINUOUS
 62
     7
 10
2.1701
 20
1.5833
 30
0
 11
2.1424
 21
1.5556
 31
0
  0
LINE
  8
LAYER1
  6
CONTINUOUS
 62
     7
 10
2.1979
 20
1.5556
 30
0
 11
2.3368
 21
1.5556
 31
0
  0
LINE
  8
LAYER1
  6
CONTINUOUS
 62
     7
 10
2.0035
 20
1.5556
 30
0
 11
2.1424
 21
1.5556
 31
0
  0
LINE
  8
LAYER1
  6
CONTINUOUS
 62
     7
 10
2.3368
 20
1.5556
 30
0
 11
2.5035
 21
1.7222
 31
0
  0
LINE
  8
LAYER1
  6
CONTINUOUS
 62
     7
 10
2.8368
 20
1.7222
 30
0
 11
3.0035
 21
1.5556
 31
0
  0
LINE
  8
LAYER1
  6
CONTINUOUS
 62
     7
 10
3.1701
 20
1.5833
 30
0
 11
3.1979
 21
1.5556
 31
0
  0
LINE
  8
LAYER1
  6
CONTINUOUS
 62
     7
 10
3.1701
 20
1.5833
 30
0
 11
3.1424
 21
1.5556
 31
0
  0
LINE
  8
LAYER1
  6
CONTINUOUS
 62
     7
 10
3.1979
 20
1.5556
 30
0
 11
3.3368
 21
1.5556
 31
0
  0
LINE
  8
LAYER1
  6
CONTINUOUS
 62
     7
 10
3.0035
 20
1.5556
 30
0
 11
3.1424
 21
1.5556
 31
0
  0
INSERT
  8
LAYER1
  2
Group18
 10
0
 20
0
 30
0
  0
POLYLINE
  8
LAYER1
  6
CONTINUOUS
 62
     7
 66
     1
 70
     0
 40
0.0078
 41
0.0078
  0
VERTEX
  8
LAYER1
 10
3.6701
 20
1.6944
 30
0
 70
     0
  0
VERTEX
  8
LAYER1
 10
3.6979
 20
1.7222
 30
0
 70
     0
  0
VERTEX
  8
LAYER1
 10
3.8368
 20
1.7222
 30
0
 70
     0
  0
VERTEX
  8
LAYER1
 10
4.0035
 20
1.5556
 30
0
 70
     0
  0
SEQEND
  0
LINE
  8
LAYER1
  6
CONTINUOUS
 62
     7
 10
4.1701
 20
1.5833
 30
0
 11
4.1562
 21
1.5556
 31
0
  0
LINE
  8
LAYER1
  6
CONTINUOUS
 62
     7
 10
4.0035
 20
1.5556
 30
0
 11
4.1562
 21
1.5556
 31
0
  0
POLYLINE
  8
LAYER1
  6
CONTINUOUS
 62
     7
 66
     1
 70
     0
 40
0.0078
 41
0.0078
  0
VERTEX
  8
LAYER1
 10
1.1562
 20
1.5833
 30
0
 70
     0
  0
VERTEX
  8
LAYER1
 10
1.1562
 20
1.5972
 30
0
 70
     0
  0
VERTEX
  8
LAYER1
 10
1.1701
 20
1.5972
 30
0
 70
     0
  0
VERTEX
  8
LAYER1
 10
1.184
 20
1.5972
 30
0
 70
     0
  0
VERTEX
  8
LAYER1
 10
1.184
 20
1.5833
 30
0
 70
     0
  0
SEQEND
  0
LINE
  8
LAYER1
  6
CONTINUOUS
 62
     7
 10
1.1562
 20
1.5833
 30
0
 11
1.1424
 21
1.5556
 31
0
  0
ENDBLK
  8
LAYER1
  0
BLOCK
  8
LAYER1
  2
Group20
 70
     0
 10
0
 20
0
 30
0
  0
LINE
  8
LAYER1
  6
CONTINUOUS
 62
     7
 10
9.7674
 20
9.9167
 30
0
 11
9.8229
 21
9.9167
 31
0
  0
POLYLINE
  8
LAYER1
  6
CONTINUOUS
 62
     7
 66
     1
 70
     0
 40
0.0078
 41
0.0078
  0
VERTEX
  8
LAYER1
 10
10.1701
 20
9.8056
 30
0
 70
     0
  0
VERTEX
  8
LAYER1
 10
10.1562
 20
9.8056
 30
0
 70
     0
  0
VERTEX
  8
LAYER1
 10
10.1562
 20
9.7917
 30
0
 70
     0
  0
VERTEX
  8
LAYER1
 10
10.1562
 20
9.7917
 30
0
 70
     0
  0
VERTEX
  8
LAYER1
 10
10.1424
 20
9.7917
 30
0
 70
     0
  0
SEQEND
  0
POLYLINE
  8
LAYER1
  6
CONTINUOUS
 62
     7
 66
     1
 70
     0
 40
0.0078
 41
0.0078
  0
VERTEX
  8
LAYER1
 10
10.3785
 20
9.7917
 30
0
 70
     0
  0
VERTEX
  8
LAYER1
 10
10.3646
 20
9.8056
 30
0
 70
     0
  0
VERTEX
  8
LAYER1
 10
10.3646
 20
9.8056
 30
0
 70
     0
  0
SEQEND
  0
POLYLINE
  8
LAYER1
  6
CONTINUOUS
 62
     7
 66
     1
 70
     0
 40
0.0078
 41
0.0078
  0
VERTEX
  8
LAYER1
 10
10.3229
 20
9.9167
 30
0
 70
     0
  0
VERTEX
  8
LAYER1
 10
10.3368
 20
9.9167
 30
0
 70
     0
  0
VERTEX
  8
LAYER1
 10
10.3368
 20
9.9028
 30
0
 70
     0
  0
SEQEND
  0
LINE
  8
LAYER1
  6
CONTINUOUS
 62
     7
 10
10.3646
 20
9.8056
 30
0
 11
10.3368
 21
9.9028
 31
0
  0
POLYLINE
  8
LAYER1
  6
CONTINUOUS
 62
     7
 66
     1
 70
     0
 40
0.0078
 41
0.0078
  0
VERTEX
  8
LAYER1
 10
10.184
 20
9.9028
 30
0
 70
     0
  0
VERTEX
  8
LAYER1
 10
10.1979
 20
9.9028
 30
0
 70
     0
  0
VERTEX
  8
LAYER1
 10
10.1979
 20
9.9028
 30
0
 70
     0
  0
VERTEX
  8
LAYER1
 10
10.1979
 20
9.9167
 30
0
 70
     0
  0
VERTEX
  8
LAYER1
 10
10.2118
 20
9.9167
 30
0
 70
     0
  0
SEQEND
  0
LINE
  8
LAYER1
  6
CONTINUOUS
 62
     7
 10
10.1701
 20
9.8056
 30
0
 11
10.184
 21
9.9028
 31
0
  0
ENDBLK
  8
LAYER1
  0
BLOCK
  8
LAYER1
  2
Group21
 70
     0
 10
0
 20
0
 30
0
  0
LINE
  8
LAYER1
  6
CONTINUOUS
 62
     7
 10
10.2118
 20
9.9167
 30
0
 11
10.3229
 21
9.9167
 31
0
  0
POLYLINE
  8
LAYER1
  6
CONTINUOUS
 62
     7
 66
     1
 70
     0
 40
0.0078
 41
0.0078
  0
VERTEX
  8
LAYER1
 10
10.6701
 20
9.8056
 30
0
 70
     0
  0
VERTEX
  8
LAYER1
 10
10.6562
 20
9.8056
 30
0
 70
     0
  0
VERTEX
  8
LAYER1
 10
10.6562
 20
9.7917
 30
0
 70
     0
  0
VERTEX
  8
LAYER1
 10
10.6562
 20
9.7917
 30
0
 70
     0
  0
VERTEX
  8
LAYER1
 10
10.6424
 20
9.7917
 30
0
 70
     0
  0
SEQEND
  0
POLYLINE
  8
LAYER1
  6
CONTINUOUS
 62
     7
 66
     1
 70
     0
 40
0.0078
 41
0.0078
  0
VERTEX
  8
LAYER1
 10
10.8785
 20
9.7917
 30
0
 70
     0
  0
VERTEX
  8
LAYER1
 10
10.8646
 20
9.8056
 30
0
 70
     0
  0
VERTEX
  8
LAYER1
 10
10.8646
 20
9.8056
 30
0
 70
     0
  0
SEQEND
  0
POLYLINE
  8
LAYER1
  6
CONTINUOUS
 62
     7
 66
     1
 70
     0
 40
0.0078
 41
0.0078
  0
VERTEX
  8
LAYER1
 10
10.8229
 20
9.9167
 30
0
 70
     0
  0
VERTEX
  8
LAYER1
 10
10.8368
 20
9.9167
 30
0
 70
     0
  0
VERTEX
  8
LAYER1
 10
10.8368
 20
9.9028
 30
0
 70
     0
  0
SEQEND
  0
LINE
  8
LAYER1
  6
CONTINUOUS
 62
     7
 10
10.8646
 20
9.8056
 30
0
 11
10.8368
 21
9.9028
 31
0
  0
POLYLINE
  8
LAYER1
  6
CONTINUOUS
 62
     7
 66
     1
 70
     0
 40
0.0078
 41
0.0078
  0
VERTEX
  8
LAYER1
 10
10.684
 20
9.9028
 30
0
 70
     0
  0
VERTEX
  8
LAYER1
 10
10.6979
 20
9.9028
 30
0
 70
     0
  0
VERTEX
  8
LAYER1
 10
10.6979
 20
9.9028
 30
0
 70
     0
  0
VERTEX
  8
LAYER1
 10
10.6979
 20
9.9167
 30
0
 70
     0
  0
VERTEX
  8
LAYER1
 10
10.7118
 20
9.9167
 30
0
 70
     0
  0
SEQEND
  0
LINE
  8
LAYER1
  6
CONTINUOUS
 62
     7
 10
10.6701
 20
9.8056
 30
0
 11
10.684
 21
9.9028
 31
0
  0
ENDBLK
  8
LAYER1
  0
BLOCK
  8
LAYER1
  2
Group22
 70
     0
 10
0
 20
0
 30
0
  0
LINE
  8
LAYER1
  6
CONTINUOUS
 62
     7
 10
10.7118
 20
9.9167
 30
0
 11
10.8229
 21
9.9167
 31
0
  0
POLYLINE
  8
LAYER1
  6
CONTINUOUS
 62
     7
 66
     1
 70
     0
 40
0.0078
 41
0.0078
  0
VERTEX
  8
LAYER1
 10
11.1701
 20
9.8056
 30
0
 70
     0
  0
VERTEX
  8
LAYER1
 10
11.1562
 20
9.8056
 30
0
 70
     0
  0
VERTEX
  8
LAYER1
 10
11.1562
 20
9.7917
 30
0
 70
     0
  0
VERTEX
  8
LAYER1
 10
11.1562
 20
9.7917
 30
0
 70
     0
  0
VERTEX
  8
LAYER1
 10
11.1424
 20
9.7917
 30
0
 70
     0
  0
SEQEND
  0
POLYLINE
  8
LAYER1
  6
CONTINUOUS
 62
     7
 66
     1
 70
     0
 40
0.0078
 41
0.0078
  0
VERTEX
  8
LAYER1
 10
11.3785
 20
9.7917
 30
0
 70
     0
  0
VERTEX
  8
LAYER1
 10
11.3646
 20
9.8056
 30
0
 70
     0
  0
VERTEX
  8
LAYER1
 10
11.3646
 20
9.8056
 30
0
 70
     0
  0
SEQEND
  0
POLYLINE
  8
LAYER1
  6
CONTINUOUS
 62
     7
 66
     1
 70
     0
 40
0.0078
 41
0.0078
  0
VERTEX
  8
LAYER1
 10
11.3229
 20
9.9167
 30
0
 70
     0
  0
VERTEX
  8
LAYER1
 10
11.3368
 20
9.9167
 30
0
 70
     0
  0
VERTEX
  8
LAYER1
 10
11.3368
 20
9.9028
 30
0
 70
     0
  0
SEQEND
  0
LINE
  8
LAYER1
  6
CONTINUOUS
 62
     7
 10
11.3646
 20
9.8056
 30
0
 11
11.3368
 21
9.9028
 31
0
  0
POLYLINE
  8
LAYER1
  6
CONTINUOUS
 62
     7
 66
     1
 70
     0
 40
0.0078
 41
0.0078
  0
VERTEX
  8
LAYER1
 10
11.184
 20
9.9028
 30
0
 70
     0
  0
VERTEX
  8
LAYER1
 10
11.1979
 20
9.9028
 30
0
 70
     0
  0
VERTEX
  8
LAYER1
 10
11.1979
 20
9.9028
 30
0
 70
     0
  0
VERTEX
  8
LAYER1
 10
11.1979
 20
9.9167
 30
0
 70
     0
  0
VERTEX
  8
LAYER1
 10
11.2118
 20
9.9167
 30
0
 70
     0
  0
SEQEND
  0
LINE
  8
LAYER1
  6
CONTINUOUS
 62
     7
 10
11.1701
 20
9.8056
 30
0
 11
11.184
 21
9.9028
 31
0
  0
ENDBLK
  8
LAYER1
  0
BLOCK
  8
LAYER1
  2
Group23
 70
     0
 10
0
 20
0
 30
0
  0
LINE
  8
LAYER1
  6
CONTINUOUS
 62
     7
 10
11.2118
 20
9.9167
 30
0
 11
11.3229
 21
9.9167
 31
0
  0
POLYLINE
  8
LAYER1
  6
CONTINUOUS
 62
     7
 66
     1
 70
     0
 40
0.0078
 41
0.0078
  0
VERTEX
  8
LAYER1
 10
11.6701
 20
9.8056
 30
0
 70
     0
  0
VERTEX
  8
LAYER1
 10
11.6562
 20
9.8056
 30
0
 70
     0
  0
VERTEX
  8
LAYER1
 10
11.6562
 20
9.7917
 30
0
 70
     0
  0
VERTEX
  8
LAYER1
 10
11.6562
 20
9.7917
 30
0
 70
     0
  0
VERTEX
  8
LAYER1
 10
11.6424
 20
9.7917
 30
0
 70
     0
  0
SEQEND
  0
POLYLINE
  8
LAYER1
  6
CONTINUOUS
 62
     7
 66
     1
 70
     0
 40
0.0078
 41
0.0078
  0
VERTEX
  8
LAYER1
 10
11.8785
 20
9.7917
 30
0
 70
     0
  0
VERTEX
  8
LAYER1
 10
11.8646
 20
9.8056
 30
0
 70
     0
  0
VERTEX
  8
LAYER1
 10
11.8646
 20
9.8056
 30
0
 70
     0
  0
SEQEND
  0
POLYLINE
  8
LAYER1
  6
CONTINUOUS
 62
     7
 66
     1
 70
     0
 40
0.0078
 41
0.0078
  0
VERTEX
  8
LAYER1
 10
11.8229
 20
9.9167
 30
0
 70
     0
  0
VERTEX
  8
LAYER1
 10
11.8368
 20
9.9167
 30
0
 70
     0
  0
VERTEX
  8
LAYER1
 10
11.8368
 20
9.9028
 30
0
 70
     0
  0
SEQEND
  0
LINE
  8
LAYER1
  6
CONTINUOUS
 62
     7
 10
11.8646
 20
9.8056
 30
0
 11
11.8368
 21
9.9028
 31
0
  0
POLYLINE
  8
LAYER1
  6
CONTINUOUS
 62
     7
 66
     1
 70
     0
 40
0.0078
 41
0.0078
  0
VERTEX
  8
LAYER1
 10
11.684
 20
9.9028
 30
0
 70
     0
  0
VERTEX
  8
LAYER1
 10
11.6979
 20
9.9028
 30
0
 70
     0
  0
VERTEX
  8
LAYER1
 10
11.6979
 20
9.9028
 30
0
 70
     0
  0
VERTEX
  8
LAYER1
 10
11.6979
 20
9.9167
 30
0
 70
     0
  0
VERTEX
  8
LAYER1
 10
11.7118
 20
9.9167
 30
0
 70
     0
  0
SEQEND
  0
LINE
  8
LAYER1
  6
CONTINUOUS
 62
     7
 10
11.6701
 20
9.8056
 30
0
 11
11.684
 21
9.9028
 31
0
  0
ENDBLK
  8
LAYER1
  0
BLOCK
  8
LAYER1
  2
Group24
 70
     0
 10
0
 20
0
 30
0
  0
LINE
  8
LAYER1
  6
CONTINUOUS
 62
     7
 10
11.7118
 20
9.9167
 30
0
 11
11.8229
 21
9.9167
 31
0
  0
POLYLINE
  8
LAYER1
  6
CONTINUOUS
 62
     7
 66
     1
 70
     0
 40
0.0078
 41
0.0078
  0
VERTEX
  8
LAYER1
 10
12.1701
 20
9.8056
 30
0
 70
     0
  0
VERTEX
  8
LAYER1
 10
12.1562
 20
9.8056
 30
0
 70
     0
  0
VERTEX
  8
LAYER1
 10
12.1562
 20
9.7917
 30
0
 70
     0
  0
VERTEX
  8
LAYER1
 10
12.1562
 20
9.7917
 30
0
 70
     0
  0
VERTEX
  8
LAYER1
 10
12.1424
 20
9.7917
 30
0
 70
     0
  0
SEQEND
  0
POLYLINE
  8
LAYER1
  6
CONTINUOUS
 62
     7
 66
     1
 70
     0
 40
0.0078
 41
0.0078
  0
VERTEX
  8
LAYER1
 10
12.3785
 20
9.7917
 30
0
 70
     0
  0
VERTEX
  8
LAYER1
 10
12.3646
 20
9.8056
 30
0
 70
     0
  0
VERTEX
  8
LAYER1
 10
12.3646
 20
9.8056
 30
0
 70
     0
  0
SEQEND
  0
POLYLINE
  8
LAYER1
  6
CONTINUOUS
 62
     7
 66
     1
 70
     0
 40
0.0078
 41
0.0078
  0
VERTEX
  8
LAYER1
 10
12.3229
 20
9.9167
 30
0
 70
     0
  0
VERTEX
  8
LAYER1
 10
12.3368
 20
9.9167
 30
0
 70
     0
  0
VERTEX
  8
LAYER1
 10
12.3368
 20
9.9028
 30
0
 70
     0
  0
SEQEND
  0
LINE
  8
LAYER1
  6
CONTINUOUS
 62
     7
 10
12.3646
 20
9.8056
 30
0
 11
12.3368
 21
9.9028
 31
0
  0
POLYLINE
  8
LAYER1
  6
CONTINUOUS
 62
     7
 66
     1
 70
     0
 40
0.0078
 41
0.0078
  0
VERTEX
  8
LAYER1
 10
12.184
 20
9.9028
 30
0
 70
     0
  0
VERTEX
  8
LAYER1
 10
12.1979
 20
9.9028
 30
0
 70
     0
  0
VERTEX
  8
LAYER1
 10
12.1979
 20
9.9028
 30
0
 70
     0
  0
VERTEX
  8
LAYER1
 10
12.1979
 20
9.9167
 30
0
 70
     0
  0
VERTEX
  8
LAYER1
 10
12.2118
 20
9.9167
 30
0
 70
     0
  0
SEQEND
  0
LINE
  8
LAYER1
  6
CONTINUOUS
 62
     7
 10
12.1701
 20
9.8056
 30
0
 11
12.184
 21
9.9028
 31
0
  0
ENDBLK
  8
LAYER1
  0
BLOCK
  8
LAYER1
  2
Group25
 70
     0
 10
0
 20
0
 30
0
  0
LINE
  8
LAYER1
  6
CONTINUOUS
 62
     7
 10
1.184
 20
1.5833
 30
0
 11
1.1979
 21
1.5556
 31
0
  0
POLYLINE
  8
LAYER1
  6
CONTINUOUS
 62
     7
 66
     1
 70
     0
 40
0.0078
 41
0.0078
  0
VERTEX
  8
LAYER1
 10
9.8785
 20
9.7917
 30
0
 70
     0
  0
VERTEX
  8
LAYER1
 10
9.8646
 20
9.8056
 30
0
 70
     0
  0
VERTEX
  8
LAYER1
 10
9.8646
 20
9.8056
 30
0
 70
     0
  0
SEQEND
  0
POLYLINE
  8
LAYER1
  6
CONTINUOUS
 62
     7
 66
     1
 70
     0
 40
0.0078
 41
0.0078
  0
VERTEX
  8
LAYER1
 10
9.8229
 20
9.9167
 30
0
 70
     0
  0
VERTEX
  8
LAYER1
 10
9.8368
 20
9.9167
 30
0
 70
     0
  0
VERTEX
  8
LAYER1
 10
9.8368
 20
9.9028
 30
0
 70
     0
  0
SEQEND
  0
LINE
  8
LAYER1
  6
CONTINUOUS
 62
     7
 10
9.8646
 20
9.8056
 30
0
 11
9.8368
 21
9.9028
 31
0
  0
INSERT
  8
LAYER1
  2
Group20
 10
0
 20
0
 30
0
  0
INSERT
  8
LAYER1
  2
Group21
 10
0
 20
0
 30
0
  0
INSERT
  8
LAYER1
  2
Group22
 10
0
 20
0
 30
0
  0
INSERT
  8
LAYER1
  2
Group23
 10
0
 20
0
 30
0
  0
INSERT
  8
LAYER1
  2
Group24
 10
0
 20
0
 30
0
  0
LINE
  8
LAYER1
  6
CONTINUOUS
 62
     7
 10
12.2118
 20
9.9167
 30
0
 11
12.3229
 21
9.9167
 31
0
  0
POLYLINE
  8
LAYER1
  6
CONTINUOUS
 62
     7
 66
     1
 70
     0
 40
0.0078
 41
0.0078
  0
VERTEX
  8
LAYER1
 10
12.6701
 20
9.8056
 30
0
 70
     0
  0
VERTEX
  8
LAYER1
 10
12.6562
 20
9.8056
 30
0
 70
     0
  0
VERTEX
  8
LAYER1
 10
12.6562
 20
9.7917
 30
0
 70
     0
  0
VERTEX
  8
LAYER1
 10
12.6562
 20
9.7917
 30
0
 70
     0
  0
VERTEX
  8
LAYER1
 10
12.6424
 20
9.7917
 30
0
 70
     0
  0
SEQEND
  0
POLYLINE
  8
LAYER1
  6
CONTINUOUS
 62
     7
 66
     1
 70
     0
 40
0.0078
 41
0.0078
  0
VERTEX
  8
LAYER1
 10
12.8229
 20
9.9167
 30
0
 70
     0
  0
VERTEX
  8
LAYER1
 10
12.8368
 20
9.9167
 30
0
 70
     0
  0
VERTEX
  8
LAYER1
 10
12.8368
 20
9.9028
 30
0
 70
     0
  0
SEQEND
  0
LINE
  8
LAYER1
  6
CONTINUOUS
 62
     7
 10
12.8646
 20
9.8056
 30
0
 11
12.8368
 21
9.9028
 31
0
  0
POLYLINE
  8
LAYER1
  6
CONTINUOUS
 62
     7
 66
     1
 70
     0
 40
0.0078
 41
0.0078
  0
VERTEX
  8
LAYER1
 10
12.684
 20
9.9028
 30
0
 70
     0
  0
VERTEX
  8
LAYER1
 10
12.6979
 20
9.9028
 30
0
 70
     0
  0
VERTEX
  8
LAYER1
 10
12.6979
 20
9.9028
 30
0
 70
     0
  0
VERTEX
  8
LAYER1
 10
12.6979
 20
9.9167
 30
0
 70
     0
  0
VERTEX
  8
LAYER1
 10
12.7118
 20
9.9167
 30
0
 70
     0
  0
SEQEND
  0
LINE
  8
LAYER1
  6
CONTINUOUS
 62
     7
 10
12.6701
 20
9.8056
 30
0
 11
12.684
 21
9.9028
 31
0
  0
LINE
  8
LAYER1
  6
CONTINUOUS
 62
     7
 10
12.7118
 20
9.9167
 30
0
 11
12.8229
 21
9.9167
 31
0
  0
LINE
  8
LAYER1
  6
CONTINUOUS
 62
     7
 10
9.8785
 20
9.7917
 30
0
 11
10.1424
 21
9.7917
 31
0
  0
LINE
  8
LAYER1
  6
CONTINUOUS
 62
     7
 10
10.3785
 20
9.7917
 30
0
 11
10.6424
 21
9.7917
 31
0
  0
LINE
  8
LAYER1
  6
CONTINUOUS
 62
     7
 10
10.8785
 20
9.7917
 30
0
 11
11.1424
 21
9.7917
 31
0
  0
LINE
  8
LAYER1
  6
CONTINUOUS
 62
     7
 10
11.3785
 20
9.7917
 30
0
 11
11.6424
 21
9.7917
 31
0
  0
LINE
  8
LAYER1
  6
CONTINUOUS
 62
     7
 10
11.8785
 20
9.7917
 30
0
 11
12.1424
 21
9.7917
 31
0
  0
ENDBLK
  8
LAYER1
  0
BLOCK
  8
LAYER1
  2
Group26
 70
     0
 10
0
 20
0
 30
0
  0
LINE
  8
LAYER1
  6
CONTINUOUS
 62
     7
 10
12.3785
 20
9.7917
 30
0
 11
12.6424
 21
9.7917
 31
0
  0
POLYLINE
  8
LAYER1
  6
CONTINUOUS
 62
     7
 66
     1
 70
     0
 40
0.0078
 41
0.0078
  0
VERTEX
  8
LAYER1
 10
10.1146
 20
8.5972
 30
0
 70
     0
  0
VERTEX
  8
LAYER1
 10
10.1146
 20
8.5972
 30
0
 70
     0
  0
VERTEX
  8
LAYER1
 10
10.1146
 20
8.5972
 30
0
 70
     0
  0
VERTEX
  8
LAYER1
 10
10.1424
 20
8.6111
 30
0
 70
     0
  0
VERTEX
  8
LAYER1
 10
10.1424
 20
8.6111
 30
0
 70
     0
  0
SEQEND
  0
POLYLINE
  8
LAYER1
  6
CONTINUOUS
 62
     7
 66
     1
 70
     0
 40
0.0078
 41
0.0078
  0
VERTEX
  8
LAYER1
 10
10.0312
 20
8.5139
 30
0
 70
     0
  0
VERTEX
  8
LAYER1
 10
10.0312
 20
8.5139
 30
0
 70
     0
  0
VERTEX
  8
LAYER1
 10
10.0174
 20
8.5
 30
0
 70
     0
  0
VERTEX
  8
LAYER1
 10
10.0174
 20
8.5
 30
0
 70
     0
  0
VERTEX
  8
LAYER1
 10
10.0035
 20
8.5
 30
0
 70
     0
  0
SEQEND
  0
LINE
  8
LAYER1
  6
CONTINUOUS
 62
     7
 10
10.0312
 20
8.5139
 30
0
 11
10.1146
 21
8.5972
 31
0
  0
POLYLINE
  8
LAYER1
  6
CONTINUOUS
 62
     7
 66
     1
 70
     0
 40
0.0078
 41
0.0078
  0
VERTEX
  8
LAYER1
 10
9.9618
 20
8.5
 30
0
 70
     0
  0
VERTEX
  8
LAYER1
 10
9.9479
 20
8.5
 30
0
 70
     0
  0
VERTEX
  8
LAYER1
 10
9.934
 20
8.5
 30
0
 70
     0
  0
VERTEX
  8
LAYER1
 10
9.934
 20
8.5139
 30
0
 70
     0
  0
VERTEX
  8
LAYER1
 10
9.934
 20
8.5139
 30
0
 70
     0
  0
SEQEND
  0
LINE
  8
LAYER1
  6
CONTINUOUS
 62
     7
 10
9.9618
 20
8.5
 30
0
 11
10.0035
 21
8.5
 31
0
  0
LINE
  8
LAYER1
  6
CONTINUOUS
 62
     7
 10
9.8785
 20
8.5556
 30
0
 11
9.934
 21
8.5139
 31
0
  0
POLYLINE
  8
LAYER1
  6
CONTINUOUS
 62
     7
 66
     1
 70
     0
 40
0.0078
 41
0.0078
  0
VERTEX
  8
LAYER1
 10
10.1979
 20
8.6111
 30
0
 70
     0
  0
VERTEX
  8
LAYER1
 10
10.2118
 20
8.6111
 30
0
 70
     0
  0
VERTEX
  8
LAYER1
 10
10.2257
 20
8.5972
 30
0
 70
     0
  0
VERTEX
  8
LAYER1
 10
10.2257
 20
8.5972
 30
0
 70
     0
  0
VERTEX
  8
LAYER1
 10
10.2257
 20
8.5972
 30
0
 70
     0
  0
SEQEND
  0
POLYLINE
  8
LAYER1
  6
CONTINUOUS
 62
     7
 66
     1
 70
     0
 40
0.0078
 41
0.0078
  0
VERTEX
  8
LAYER1
 10
10.5035
 20
8.5972
 30
0
 70
     0
  0
VERTEX
  8
LAYER1
 10
10.5035
 20
8.5972
 30
0
 70
     0
  0
VERTEX
  8
LAYER1
 10
10.5035
 20
8.5972
 30
0
 70
     0
  0
VERTEX
  8
LAYER1
 10
10.5312
 20
8.6111
 30
0
 70
     0
  0
VERTEX
  8
LAYER1
 10
10.5312
 20
8.6111
 30
0
 70
     0
  0
SEQEND
  0
POLYLINE
  8
LAYER1
  6
CONTINUOUS
 62
     7
 66
     1
 70
     0
 40
0.0078
 41
0.0078
  0
VERTEX
  8
LAYER1
 10
10.4201
 20
8.5139
 30
0
 70
     0
  0
VERTEX
  8
LAYER1
 10
10.4201
 20
8.5139
 30
0
 70
     0
  0
VERTEX
  8
LAYER1
 10
10.4062
 20
8.5
 30
0
 70
     0
  0
VERTEX
  8
LAYER1
 10
10.4062
 20
8.5
 30
0
 70
     0
  0
VERTEX
  8
LAYER1
 10
10.3924
 20
8.5
 30
0
 70
     0
  0
SEQEND
  0
LINE
  8
LAYER1
  6
CONTINUOUS
 62
     7
 10
10.4201
 20
8.5139
 30
0
 11
10.5035
 21
8.5972
 31
0
  0
POLYLINE
  8
LAYER1
  6
CONTINUOUS
 62
     7
 66
     1
 70
     0
 40
0.0078
 41
0.0078
  0
VERTEX
  8
LAYER1
 10
10.3368
 20
8.5
 30
0
 70
     0
  0
VERTEX
  8
LAYER1
 10
10.3368
 20
8.5
 30
0
 70
     0
  0
VERTEX
  8
LAYER1
 10
10.3229
 20
8.5
 30
0
 70
     0
  0
VERTEX
  8
LAYER1
 10
10.309
 20
8.5139
 30
0
 70
     0
  0
VERTEX
  8
LAYER1
 10
10.309
 20
8.5139
 30
0
 70
     0
  0
SEQEND
  0
LINE
  8
LAYER1
  6
CONTINUOUS
 62
     7
 10
10.3368
 20
8.5
 30
0
 11
10.3924
 21
8.5
 31
0
  0
LINE
  8
LAYER1
  6
CONTINUOUS
 62
     7
 10
10.2257
 20
8.5972
 30
0
 11
10.309
 21
8.5139
 31
0
  0
POLYLINE
  8
LAYER1
  6
CONTINUOUS
 62
     7
 66
     1
 70
     0
 40
0.0078
 41
0.0078
  0
VERTEX
  8
LAYER1
 10
10.5729
 20
8.6111
 30
0
 70
     0
  0
VERTEX
  8
LAYER1
 10
10.5868
 20
8.6111
 30
0
 70
     0
  0
VERTEX
  8
LAYER1
 10
10.6007
 20
8.5972
 30
0
 70
     0
  0
VERTEX
  8
LAYER1
 10
10.6007
 20
8.5972
 30
0
 70
     0
  0
VERTEX
  8
LAYER1
 10
10.6007
 20
8.5972
 30
0
 70
     0
  0
SEQEND
  0
POLYLINE
  8
LAYER1
  6
CONTINUOUS
 62
     7
 66
     1
 70
     0
 40
0.0078
 41
0.0078
  0
VERTEX
  8
LAYER1
 10
10.8785
 20
8.5972
 30
0
 70
     0
  0
VERTEX
  8
LAYER1
 10
10.8785
 20
8.5972
 30
0
 70
     0
  0
VERTEX
  8
LAYER1
 10
10.8785
 20
8.5972
 30
0
 70
     0
  0
VERTEX
  8
LAYER1
 10
10.9062
 20
8.6111
 30
0
 70
     0
  0
VERTEX
  8
LAYER1
 10
10.9062
 20
8.6111
 30
0
 70
     0
  0
SEQEND
  0
POLYLINE
  8
LAYER1
  6
CONTINUOUS
 62
     7
 66
     1
 70
     0
 40
0.0078
 41
0.0078
  0
VERTEX
  8
LAYER1
 10
10.7951
 20
8.5139
 30
0
 70
     0
  0
VERTEX
  8
LAYER1
 10
10.7951
 20
8.5139
 30
0
 70
     0
  0
VERTEX
  8
LAYER1
 10
10.7812
 20
8.5
 30
0
 70
     0
  0
VERTEX
  8
LAYER1
 10
10.7812
 20
8.5
 30
0
 70
     0
  0
VERTEX
  8
LAYER1
 10
10.7674
 20
8.5
 30
0
 70
     0
  0
SEQEND
  0
LINE
  8
LAYER1
  6
CONTINUOUS
 62
     7
 10
10.7951
 20
8.5139
 30
0
 11
10.8785
 21
8.5972
 31
0
  0
POLYLINE
  8
LAYER1
  6
CONTINUOUS
 62
     7
 66
     1
 70
     0
 40
0.0078
 41
0.0078
  0
VERTEX
  8
LAYER1
 10
10.7257
 20
8.5
 30
0
 70
     0
  0
VERTEX
  8
LAYER1
 10
10.7118
 20
8.5
 30
0
 70
     0
  0
VERTEX
  8
LAYER1
 10
10.6979
 20
8.5
 30
0
 70
     0
  0
VERTEX
  8
LAYER1
 10
10.684
 20
8.5139
 30
0
 70
     0
  0
VERTEX
  8
LAYER1
 10
10.684
 20
8.5139
 30
0
 70
     0
  0
SEQEND
  0
LINE
  8
LAYER1
  6
CONTINUOUS
 62
     7
 10
10.7257
 20
8.5
 30
0
 11
10.7674
 21
8.5
 31
0
  0
LINE
  8
LAYER1
  6
CONTINUOUS
 62
     7
 10
10.6007
 20
8.5972
 30
0
 11
10.684
 21
8.5139
 31
0
  0
POLYLINE
  8
LAYER1
  6
CONTINUOUS
 62
     7
 66
     1
 70
     0
 40
0.0078
 41
0.0078
  0
VERTEX
  8
LAYER1
 10
10.9618
 20
8.6111
 30
0
 70
     0
  0
VERTEX
  8
LAYER1
 10
10.9757
 20
8.6111
 30
0
 70
     0
  0
VERTEX
  8
LAYER1
 10
10.9896
 20
8.5972
 30
0
 70
     0
  0
VERTEX
  8
LAYER1
 10
10.9896
 20
8.5972
 30
0
 70
     0
  0
VERTEX
  8
LAYER1
 10
10.9896
 20
8.5972
 30
0
 70
     0
  0
SEQEND
  0
POLYLINE
  8
LAYER1
  6
CONTINUOUS
 62
     7
 66
     1
 70
     0
 40
0.0078
 41
0.0078
  0
VERTEX
  8
LAYER1
 10
11.2674
 20
8.5972
 30
0
 70
     0
  0
VERTEX
  8
LAYER1
 10
11.2674
 20
8.5972
 30
0
 70
     0
  0
VERTEX
  8
LAYER1
 10
11.2674
 20
8.5972
 30
0
 70
     0
  0
VERTEX
  8
LAYER1
 10
11.2812
 20
8.6111
 30
0
 70
     0
  0
VERTEX
  8
LAYER1
 10
11.2951
 20
8.6111
 30
0
 70
     0
  0
SEQEND
  0
POLYLINE
  8
LAYER1
  6
CONTINUOUS
 62
     7
 66
     1
 70
     0
 40
0.0078
 41
0.0078
  0
VERTEX
  8
LAYER1
 10
11.184
 20
8.5139
 30
0
 70
     0
  0
VERTEX
  8
LAYER1
 10
11.184
 20
8.5139
 30
0
 70
     0
  0
VERTEX
  8
LAYER1
 10
11.1701
 20
8.5
 30
0
 70
     0
  0
VERTEX
  8
LAYER1
 10
11.1562
 20
8.5
 30
0
 70
     0
  0
VERTEX
  8
LAYER1
 10
11.1424
 20
8.5
 30
0
 70
     0
  0
SEQEND
  0
LINE
  8
LAYER1
  6
CONTINUOUS
 62
     7
 10
11.184
 20
8.5139
 30
0
 11
11.2674
 21
8.5972
 31
0
  0
POLYLINE
  8
LAYER1
  6
CONTINUOUS
 62
     7
 66
     1
 70
     0
 40
0.0078
 41
0.0078
  0
VERTEX
  8
LAYER1
 10
11.1007
 20
8.5
 30
0
 70
     0
  0
VERTEX
  8
LAYER1
 10
11.1007
 20
8.5
 30
0
 70
     0
  0
VERTEX
  8
LAYER1
 10
11.0868
 20
8.5
 30
0
 70
     0
  0
VERTEX
  8
LAYER1
 10
11.0729
 20
8.5139
 30
0
 70
     0
  0
VERTEX
  8
LAYER1
 10
11.0729
 20
8.5139
 30
0
 70
     0
  0
SEQEND
  0
LINE
  8
LAYER1
  6
CONTINUOUS
 62
     7
 10
11.1007
 20
8.5
 30
0
 11
11.1424
 21
8.5
 31
0
  0
LINE
  8
LAYER1
  6
CONTINUOUS
 62
     7
 10
10.9896
 20
8.5972
 30
0
 11
11.0729
 21
8.5139
 31
0
  0
POLYLINE
  8
LAYER1
  6
CONTINUOUS
 62
     7
 66
     1
 70
     0
 40
0.0078
 41
0.0078
  0
VERTEX
  8
LAYER1
 10
11.3368
 20
8.6111
 30
0
 70
     0
  0
VERTEX
  8
LAYER1
 10
11.3507
 20
8.6111
 30
0
 70
     0
  0
VERTEX
  8
LAYER1
 10
11.3646
 20
8.5972
 30
0
 70
     0
  0
VERTEX
  8
LAYER1
 10
11.3646
 20
8.5972
 30
0
 70
     0
  0
VERTEX
  8
LAYER1
 10
11.3646
 20
8.5972
 30
0
 70
     0
  0
SEQEND
  0
POLYLINE
  8
LAYER1
  6
CONTINUOUS
 62
     7
 66
     1
 70
     0
 40
0.0078
 41
0.0078
  0
VERTEX
  8
LAYER1
 10
11.6424
 20
8.5972
 30
0
 70
     0
  0
VERTEX
  8
LAYER1
 10
11.6424
 20
8.5972
 30
0
 70
     0
  0
VERTEX
  8
LAYER1
 10
11.6424
 20
8.5972
 30
0
 70
     0
  0
VERTEX
  8
LAYER1
 10
11.6701
 20
8.6111
 30
0
 70
     0
  0
VERTEX
  8
LAYER1
 10
11.6701
 20
8.6111
 30
0
 70
     0
  0
SEQEND
  0
POLYLINE
  8
LAYER1
  6
CONTINUOUS
 62
     7
 66
     1
 70
     0
 40
0.0078
 41
0.0078
  0
VERTEX
  8
LAYER1
 10
11.559
 20
8.5139
 30
0
 70
     0
  0
VERTEX
  8
LAYER1
 10
11.559
 20
8.5139
 30
0
 70
     0
  0
VERTEX
  8
LAYER1
 10
11.5451
 20
8.5
 30
0
 70
     0
  0
VERTEX
  8
LAYER1
 10
11.5451
 20
8.5
 30
0
 70
     0
  0
VERTEX
  8
LAYER1
 10
11.5312
 20
8.5
 30
0
 70
     0
  0
SEQEND
  0
LINE
  8
LAYER1
  6
CONTINUOUS
 62
     7
 10
11.559
 20
8.5139
 30
0
 11
11.6424
 21
8.5972
 31
0
  0
POLYLINE
  8
LAYER1
  6
CONTINUOUS
 62
     7
 66
     1
 70
     0
 40
0.0078
 41
0.0078
  0
VERTEX
  8
LAYER1
 10
11.4757
 20
8.5
 30
0
 70
     0
  0
VERTEX
  8
LAYER1
 10
11.4757
 20
8.5
 30
0
 70
     0
  0
VERTEX
  8
LAYER1
 10
11.4618
 20
8.5
 30
0
 70
     0
  0
VERTEX
  8
LAYER1
 10
11.4479
 20
8.5139
 30
0
 70
     0
  0
VERTEX
  8
LAYER1
 10
11.4479
 20
8.5139
 30
0
 70
     0
  0
SEQEND
  0
LINE
  8
LAYER1
  6
CONTINUOUS
 62
     7
 10
11.4757
 20
8.5
 30
0
 11
11.5312
 21
8.5
 31
0
  0
LINE
  8
LAYER1
  6
CONTINUOUS
 62
     7
 10
11.3646
 20
8.5972
 30
0
 11
11.4479
 21
8.5139
 31
0
  0
POLYLINE
  8
LAYER1
  6
CONTINUOUS
 62
     7
 66
     1
 70
     0
 40
0.0078
 41
0.0078
  0
VERTEX
  8
LAYER1
 10
11.7257
 20
8.6111
 30
0
 70
     0
  0
VERTEX
  8
LAYER1
 10
11.7396
 20
8.6111
 30
0
 70
     0
  0
VERTEX
  8
LAYER1
 10
11.7535
 20
8.5972
 30
0
 70
     0
  0
VERTEX
  8
LAYER1
 10
11.7535
 20
8.5972
 30
0
 70
     0
  0
VERTEX
  8
LAYER1
 10
11.7535
 20
8.5972
 30
0
 70
     0
  0
SEQEND
  0
POLYLINE
  8
LAYER1
  6
CONTINUOUS
 62
     7
 66
     1
 70
     0
 40
0.0078
 41
0.0078
  0
VERTEX
  8
LAYER1
 10
12.0174
 20
8.5972
 30
0
 70
     0
  0
VERTEX
  8
LAYER1
 10
12.0174
 20
8.5972
 30
0
 70
     0
  0
VERTEX
  8
LAYER1
 10
12.0174
 20
8.5972
 30
0
 70
     0
  0
VERTEX
  8
LAYER1
 10
12.0451
 20
8.6111
 30
0
 70
     0
  0
VERTEX
  8
LAYER1
 10
12.059
 20
8.6111
 30
0
 70
     0
  0
SEQEND
  0
POLYLINE
  8
LAYER1
  6
CONTINUOUS
 62
     7
 66
     1
 70
     0
 40
0.0078
 41
0.0078
  0
VERTEX
  8
LAYER1
 10
11.934
 20
8.5139
 30
0
 70
     0
  0
VERTEX
  8
LAYER1
 10
11.934
 20
8.5139
 30
0
 70
     0
  0
VERTEX
  8
LAYER1
 10
11.934
 20
8.5
 30
0
 70
     0
  0
VERTEX
  8
LAYER1
 10
11.9201
 20
8.5
 30
0
 70
     0
  0
VERTEX
  8
LAYER1
 10
11.9062
 20
8.5
 30
0
 70
     0
  0
SEQEND
  0
LINE
  8
LAYER1
  6
CONTINUOUS
 62
     7
 10
11.934
 20
8.5139
 30
0
 11
12.0174
 21
8.5972
 31
0
  0
POLYLINE
  8
LAYER1
  6
CONTINUOUS
 62
     7
 66
     1
 70
     0
 40
0.0078
 41
0.0078
  0
VERTEX
  8
LAYER1
 10
11.8646
 20
8.5
 30
0
 70
     0
  0
VERTEX
  8
LAYER1
 10
11.8646
 20
8.5
 30
0
 70
     0
  0
VERTEX
  8
LAYER1
 10
11.8507
 20
8.5
 30
0
 70
     0
  0
VERTEX
  8
LAYER1
 10
11.8368
 20
8.5139
 30
0
 70
     0
  0
VERTEX
  8
LAYER1
 10
11.8368
 20
8.5139
 30
0
 70
     0
  0
SEQEND
  0
LINE
  8
LAYER1
  6
CONTINUOUS
 62
     7
 10
11.8646
 20
8.5
 30
0
 11
11.9062
 21
8.5
 31
0
  0
LINE
  8
LAYER1
  6
CONTINUOUS
 62
     7
 10
11.7535
 20
8.5972
 30
0
 11
11.8368
 21
8.5139
 31
0
  0
POLYLINE
  8
LAYER1
  6
CONTINUOUS
 62
     7
 66
     1
 70
     0
 40
0.0078
 41
0.0078
  0
VERTEX
  8
LAYER1
 10
12.1007
 20
8.6111
 30
0
 70
     0
  0
VERTEX
  8
LAYER1
 10
12.1146
 20
8.6111
 30
0
 70
     0
  0
VERTEX
  8
LAYER1
 10
12.1285
 20
8.5972
 30
0
 70
     0
  0
VERTEX
  8
LAYER1
 10
12.1285
 20
8.5972
 30
0
 70
     0
  0
VERTEX
  8
LAYER1
 10
12.1285
 20
8.5972
 30
0
 70
     0
  0
SEQEND
  0
POLYLINE
  8
LAYER1
  6
CONTINUOUS
 62
     7
 66
     1
 70
     0
 40
0.0078
 41
0.0078
  0
VERTEX
  8
LAYER1
 10
12.4062
 20
8.5972
 30
0
 70
     0
  0
VERTEX
  8
LAYER1
 10
12.4062
 20
8.5972
 30
0
 70
     0
  0
VERTEX
  8
LAYER1
 10
12.4062
 20
8.5972
 30
0
 70
     0
  0
VERTEX
  8
LAYER1
 10
12.434
 20
8.6111
 30
0
 70
     0
  0
VERTEX
  8
LAYER1
 10
12.434
 20
8.6111
 30
0
 70
     0
  0
SEQEND
  0
POLYLINE
  8
LAYER1
  6
CONTINUOUS
 62
     7
 66
     1
 70
     0
 40
0.0078
 41
0.0078
  0
VERTEX
  8
LAYER1
 10
12.3229
 20
8.5139
 30
0
 70
     0
  0
VERTEX
  8
LAYER1
 10
12.3229
 20
8.5139
 30
0
 70
     0
  0
VERTEX
  8
LAYER1
 10
12.309
 20
8.5
 30
0
 70
     0
  0
VERTEX
  8
LAYER1
 10
12.309
 20
8.5
 30
0
 70
     0
  0
VERTEX
  8
LAYER1
 10
12.2951
 20
8.5
 30
0
 70
     0
  0
SEQEND
  0
LINE
  8
LAYER1
  6
CONTINUOUS
 62
     7
 10
12.3229
 20
8.5139
 30
0
 11
12.4062
 21
8.5972
 31
0
  0
POLYLINE
  8
LAYER1
  6
CONTINUOUS
 62
     7
 66
     1
 70
     0
 40
0.0078
 41
0.0078
  0
VERTEX
  8
LAYER1
 10
12.2396
 20
8.5
 30
0
 70
     0
  0
VERTEX
  8
LAYER1
 10
12.2396
 20
8.5
 30
0
 70
     0
  0
VERTEX
  8
LAYER1
 10
12.2257
 20
8.5
 30
0
 70
     0
  0
VERTEX
  8
LAYER1
 10
12.2118
 20
8.5139
 30
0
 70
     0
  0
VERTEX
  8
LAYER1
 10
12.2118
 20
8.5139
 30
0
 70
     0
  0
SEQEND
  0
LINE
  8
LAYER1
  6
CONTINUOUS
 62
     7
 10
12.2396
 20
8.5
 30
0
 11
12.2951
 21
8.5
 31
0
  0
LINE
  8
LAYER1
  6
CONTINUOUS
 62
     7
 10
12.1285
 20
8.5972
 30
0
 11
12.2118
 21
8.5139
 31
0
  0
POLYLINE
  8
LAYER1
  6
CONTINUOUS
 62
     7
 66
     1
 70
     0
 40
0.0078
 41
0.0078
  0
VERTEX
  8
LAYER1
 10
12.4757
 20
8.6111
 30
0
 70
     0
  0
VERTEX
  8
LAYER1
 10
12.4896
 20
8.6111
 30
0
 70
     0
  0
VERTEX
  8
LAYER1
 10
12.5174
 20
8.5972
 30
0
 70
     0
  0
VERTEX
  8
LAYER1
 10
12.5174
 20
8.5972
 30
0
 70
     0
  0
VERTEX
  8
LAYER1
 10
12.5174
 20
8.5972
 30
0
 70
     0
  0
SEQEND
  0
POLYLINE
  8
LAYER1
  6
CONTINUOUS
 62
     7
 66
     1
 70
     0
 40
0.0078
 41
0.0078
  0
VERTEX
  8
LAYER1
 10
12.6979
 20
8.5139
 30
0
 70
     0
  0
VERTEX
  8
LAYER1
 10
12.6979
 20
8.5139
 30
0
 70
     0
  0
VERTEX
  8
LAYER1
 10
12.684
 20
8.5
 30
0
 70
     0
  0
VERTEX
  8
LAYER1
 10
12.684
 20
8.5
 30
0
 70
     0
  0
VERTEX
  8
LAYER1
 10
12.6701
 20
8.5
 30
0
 70
     0
  0
SEQEND
  0
LINE
  8
LAYER1
  6
CONTINUOUS
 62
     7
 10
12.6979
 20
8.5139
 30
0
 11
12.7396
 21
8.5556
 31
0
  0
POLYLINE
  8
LAYER1
  6
CONTINUOUS
 62
     7
 66
     1
 70
     0
 40
0.0078
 41
0.0078
  0
VERTEX
  8
LAYER1
 10
12.6285
 20
8.5
 30
0
 70
     0
  0
VERTEX
  8
LAYER1
 10
12.6146
 20
8.5
 30
0
 70
     0
  0
VERTEX
  8
LAYER1
 10
12.6007
 20
8.5
 30
0
 70
     0
  0
VERTEX
  8
LAYER1
 10
12.6007
 20
8.5139
 30
0
 70
     0
  0
VERTEX
  8
LAYER1
 10
12.6007
 20
8.5139
 30
0
 70
     0
  0
SEQEND
  0
LINE
  8
LAYER1
  6
CONTINUOUS
 62
     7
 10
12.6285
 20
8.5
 30
0
 11
12.6701
 21
8.5
 31
0
  0
LINE
  8
LAYER1
  6
CONTINUOUS
 62
     7
 10
12.5174
 20
8.5972
 30
0
 11
12.6007
 21
8.5139
 31
0
  0
LINE
  8
LAYER1
  6
CONTINUOUS
 62
     7
 10
10.1424
 20
8.6111
 30
0
 11
10.1979
 21
8.6111
 31
0
  0
LINE
  8
LAYER1
  6
CONTINUOUS
 62
     7
 10
10.5312
 20
8.6111
 30
0
 11
10.5729
 21
8.6111
 31
0
  0
LINE
  8
LAYER1
  6
CONTINUOUS
 62
     7
 10
10.9062
 20
8.6111
 30
0
 11
10.9618
 21
8.6111
 31
0
  0
LINE
  8
LAYER1
  6
CONTINUOUS
 62
     7
 10
11.2951
 20
8.6111
 30
0
 11
11.3368
 21
8.6111
 31
0
  0
LINE
  8
LAYER1
  6
CONTINUOUS
 62
     7
 10
11.6701
 20
8.6111
 30
0
 11
11.7257
 21
8.6111
 31
0
  0
LINE
  8
LAYER1
  6
CONTINUOUS
 62
     7
 10
12.059
 20
8.6111
 30
0
 11
12.1007
 21
8.6111
 31
0
  0
ENDBLK
  8
LAYER1
  0
BLOCK
  8
LAYER1
  2
Group27
 70
     0
 10
0
 20
0
 30
0
  0
LINE
  8
LAYER1
  6
CONTINUOUS
 62
     7
 10
12.434
 20
8.6111
 30
0
 11
12.4757
 21
8.6111
 31
0
  0
POLYLINE
  8
LAYER1
  6
CONTINUOUS
 62
     7
 66
     1
 70
     0
 40
0.0078
 41
0.0078
  0
VERTEX
  8
LAYER1
 10
10.2812
 20
7.5278
 30
0
 70
     0
  0
VERTEX
  8
LAYER1
 10
10.2674
 20
7.5278
 30
0
 70
     0
  0
SEQEND
  0
POLYLINE
  8
LAYER1
  6
CONTINUOUS
 62
     7
 66
     1
 70
     0
 40
0.0078
 41
0.0078
  0
VERTEX
  8
LAYER1
 10
10.3646
 20
7.5278
 30
0
 70
     0
  0
VERTEX
  8
LAYER1
 10
10.3507
 20
7.5278
 30
0
 70
     0
  0
SEQEND
  0
LINE
  8
LAYER1
  6
CONTINUOUS
 62
     7
 10
10.2812
 20
7.5278
 30
0
 11
10.3507
 21
7.5278
 31
0
  0
POLYLINE
  8
LAYER1
  6
CONTINUOUS
 62
     7
 66
     1
 70
     0
 40
0.0078
 41
0.0078
  0
VERTEX
  8
LAYER1
 10
10.184
 20
7.6111
 30
0
 70
     0
  0
VERTEX
  8
LAYER1
 10
10.1979
 20
7.5972
 30
0
 70
     0
  0
SEQEND
  0
LINE
  8
LAYER1
  6
CONTINUOUS
 62
     7
 10
10.1979
 20
7.5972
 30
0
 11
10.2674
 21
7.5278
 31
0
  0
POLYLINE
  8
LAYER1
  6
CONTINUOUS
 62
     7
 66
     1
 70
     0
 40
0.0078
 41
0.0078
  0
VERTEX
  8
LAYER1
 10
10.434
 20
7.5972
 30
0
 70
     0
  0
VERTEX
  8
LAYER1
 10
10.434
 20
7.5972
 30
0
 70
     0
  0
VERTEX
  8
LAYER1
 10
10.4479
 20
7.6111
 30
0
 70
     0
  0
VERTEX
  8
LAYER1
 10
10.4479
 20
7.6111
 30
0
 70
     0
  0
SEQEND
  0
LINE
  8
LAYER1
  6
CONTINUOUS
 62
     7
 10
10.434
 20
7.5972
 30
0
 11
10.3646
 21
7.5278
 31
0
  0
POLYLINE
  8
LAYER1
  6
CONTINUOUS
 62
     7
 66
     1
 70
     0
 40
0.0078
 41
0.0078
  0
VERTEX
  8
LAYER1
 10
10.6146
 20
7.5278
 30
0
 70
     0
  0
VERTEX
  8
LAYER1
 10
10.6007
 20
7.5278
 30
0
 70
     0
  0
SEQEND
  0
POLYLINE
  8
LAYER1
  6
CONTINUOUS
 62
     7
 66
     1
 70
     0
 40
0.0078
 41
0.0078
  0
VERTEX
  8
LAYER1
 10
10.6979
 20
7.5278
 30
0
 70
     0
  0
VERTEX
  8
LAYER1
 10
10.684
 20
7.5278
 30
0
 70
     0
  0
SEQEND
  0
LINE
  8
LAYER1
  6
CONTINUOUS
 62
     7
 10
10.6146
 20
7.5278
 30
0
 11
10.684
 21
7.5278
 31
0
  0
POLYLINE
  8
LAYER1
  6
CONTINUOUS
 62
     7
 66
     1
 70
     0
 40
0.0078
 41
0.0078
  0
VERTEX
  8
LAYER1
 10
10.5174
 20
7.6111
 30
0
 70
     0
  0
VERTEX
  8
LAYER1
 10
10.5312
 20
7.5972
 30
0
 70
     0
  0
SEQEND
  0
LINE
  8
LAYER1
  6
CONTINUOUS
 62
     7
 10
10.5312
 20
7.5972
 30
0
 11
10.6007
 21
7.5278
 31
0
  0
POLYLINE
  8
LAYER1
  6
CONTINUOUS
 62
     7
 66
     1
 70
     0
 40
0.0078
 41
0.0078
  0
VERTEX
  8
LAYER1
 10
10.7674
 20
7.5972
 30
0
 70
     0
  0
VERTEX
  8
LAYER1
 10
10.7674
 20
7.5972
 30
0
 70
     0
  0
VERTEX
  8
LAYER1
 10
10.7812
 20
7.6111
 30
0
 70
     0
  0
VERTEX
  8
LAYER1
 10
10.7812
 20
7.6111
 30
0
 70
     0
  0
SEQEND
  0
LINE
  8
LAYER1
  6
CONTINUOUS
 62
     7
 10
10.7674
 20
7.5972
 30
0
 11
10.6979
 21
7.5278
 31
0
  0
POLYLINE
  8
LAYER1
  6
CONTINUOUS
 62
     7
 66
     1
 70
     0
 40
0.0078
 41
0.0078
  0
VERTEX
  8
LAYER1
 10
10.9479
 20
7.5278
 30
0
 70
     0
  0
VERTEX
  8
LAYER1
 10
10.934
 20
7.5278
 30
0
 70
     0
  0
SEQEND
  0
POLYLINE
  8
LAYER1
  6
CONTINUOUS
 62
     7
 66
     1
 70
     0
 40
0.0078
 41
0.0078
  0
VERTEX
  8
LAYER1
 10
11.0312
 20
7.5278
 30
0
 70
     0
  0
VERTEX
  8
LAYER1
 10
11.0174
 20
7.5278
 30
0
 70
     0
  0
SEQEND
  0
LINE
  8
LAYER1
  6
CONTINUOUS
 62
     7
 10
10.9479
 20
7.5278
 30
0
 11
11.0174
 21
7.5278
 31
0
  0
POLYLINE
  8
LAYER1
  6
CONTINUOUS
 62
     7
 66
     1
 70
     0
 40
0.0078
 41
0.0078
  0
VERTEX
  8
LAYER1
 10
10.8507
 20
7.6111
 30
0
 70
     0
  0
VERTEX
  8
LAYER1
 10
10.8646
 20
7.5972
 30
0
 70
     0
  0
SEQEND
  0
LINE
  8
LAYER1
  6
CONTINUOUS
 62
     7
 10
10.8646
 20
7.5972
 30
0
 11
10.934
 21
7.5278
 31
0
  0
POLYLINE
  8
LAYER1
  6
CONTINUOUS
 62
     7
 66
     1
 70
     0
 40
0.0078
 41
0.0078
  0
VERTEX
  8
LAYER1
 10
11.1007
 20
7.5972
 30
0
 70
     0
  0
VERTEX
  8
LAYER1
 10
11.1007
 20
7.5972
 30
0
 70
     0
  0
VERTEX
  8
LAYER1
 10
11.1146
 20
7.6111
 30
0
 70
     0
  0
VERTEX
  8
LAYER1
 10
11.1146
 20
7.6111
 30
0
 70
     0
  0
SEQEND
  0
LINE
  8
LAYER1
  6
CONTINUOUS
 62
     7
 10
11.1007
 20
7.5972
 30
0
 11
11.0312
 21
7.5278
 31
0
  0
POLYLINE
  8
LAYER1
  6
CONTINUOUS
 62
     7
 66
     1
 70
     0
 40
0.0078
 41
0.0078
  0
VERTEX
  8
LAYER1
 10
11.2812
 20
7.5278
 30
0
 70
     0
  0
VERTEX
  8
LAYER1
 10
11.2674
 20
7.5278
 30
0
 70
     0
  0
SEQEND
  0
POLYLINE
  8
LAYER1
  6
CONTINUOUS
 62
     7
 66
     1
 70
     0
 40
0.0078
 41
0.0078
  0
VERTEX
  8
LAYER1
 10
11.3646
 20
7.5278
 30
0
 70
     0
  0
VERTEX
  8
LAYER1
 10
11.3507
 20
7.5278
 30
0
 70
     0
  0
SEQEND
  0
LINE
  8
LAYER1
  6
CONTINUOUS
 62
     7
 10
11.2812
 20
7.5278
 30
0
 11
11.3507
 21
7.5278
 31
0
  0
POLYLINE
  8
LAYER1
  6
CONTINUOUS
 62
     7
 66
     1
 70
     0
 40
0.0078
 41
0.0078
  0
VERTEX
  8
LAYER1
 10
11.184
 20
7.6111
 30
0
 70
     0
  0
VERTEX
  8
LAYER1
 10
11.1979
 20
7.5972
 30
0
 70
     0
  0
SEQEND
  0
LINE
  8
LAYER1
  6
CONTINUOUS
 62
     7
 10
11.1979
 20
7.5972
 30
0
 11
11.2674
 21
7.5278
 31
0
  0
POLYLINE
  8
LAYER1
  6
CONTINUOUS
 62
     7
 66
     1
 70
     0
 40
0.0078
 41
0.0078
  0
VERTEX
  8
LAYER1
 10
11.434
 20
7.5972
 30
0
 70
     0
  0
VERTEX
  8
LAYER1
 10
11.434
 20
7.5972
 30
0
 70
     0
  0
VERTEX
  8
LAYER1
 10
11.4479
 20
7.6111
 30
0
 70
     0
  0
VERTEX
  8
LAYER1
 10
11.4479
 20
7.6111
 30
0
 70
     0
  0
SEQEND
  0
LINE
  8
LAYER1
  6
CONTINUOUS
 62
     7
 10
11.434
 20
7.5972
 30
0
 11
11.3646
 21
7.5278
 31
0
  0
POLYLINE
  8
LAYER1
  6
CONTINUOUS
 62
     7
 66
     1
 70
     0
 40
0.0078
 41
0.0078
  0
VERTEX
  8
LAYER1
 10
11.6146
 20
7.5278
 30
0
 70
     0
  0
VERTEX
  8
LAYER1
 10
11.6007
 20
7.5278
 30
0
 70
     0
  0
SEQEND
  0
POLYLINE
  8
LAYER1
  6
CONTINUOUS
 62
     7
 66
     1
 70
     0
 40
0.0078
 41
0.0078
  0
VERTEX
  8
LAYER1
 10
11.6979
 20
7.5278
 30
0
 70
     0
  0
VERTEX
  8
LAYER1
 10
11.684
 20
7.5278
 30
0
 70
     0
  0
SEQEND
  0
LINE
  8
LAYER1
  6
CONTINUOUS
 62
     7
 10
11.6146
 20
7.5278
 30
0
 11
11.684
 21
7.5278
 31
0
  0
POLYLINE
  8
LAYER1
  6
CONTINUOUS
 62
     7
 66
     1
 70
     0
 40
0.0078
 41
0.0078
  0
VERTEX
  8
LAYER1
 10
11.5174
 20
7.6111
 30
0
 70
     0
  0
VERTEX
  8
LAYER1
 10
11.5312
 20
7.5972
 30
0
 70
     0
  0
SEQEND
  0
LINE
  8
LAYER1
  6
CONTINUOUS
 62
     7
 10
11.5312
 20
7.5972
 30
0
 11
11.6007
 21
7.5278
 31
0
  0
POLYLINE
  8
LAYER1
  6
CONTINUOUS
 62
     7
 66
     1
 70
     0
 40
0.0078
 41
0.0078
  0
VERTEX
  8
LAYER1
 10
11.7674
 20
7.5972
 30
0
 70
     0
  0
VERTEX
  8
LAYER1
 10
11.7674
 20
7.5972
 30
0
 70
     0
  0
VERTEX
  8
LAYER1
 10
11.7812
 20
7.6111
 30
0
 70
     0
  0
VERTEX
  8
LAYER1
 10
11.7812
 20
7.6111
 30
0
 70
     0
  0
SEQEND
  0
LINE
  8
LAYER1
  6
CONTINUOUS
 62
     7
 10
11.7674
 20
7.5972
 30
0
 11
11.6979
 21
7.5278
 31
0
  0
POLYLINE
  8
LAYER1
  6
CONTINUOUS
 62
     7
 66
     1
 70
     0
 40
0.0078
 41
0.0078
  0
VERTEX
  8
LAYER1
 10
11.9479
 20
7.5278
 30
0
 70
     0
  0
VERTEX
  8
LAYER1
 10
11.934
 20
7.5278
 30
0
 70
     0
  0
SEQEND
  0
POLYLINE
  8
LAYER1
  6
CONTINUOUS
 62
     7
 66
     1
 70
     0
 40
0.0078
 41
0.0078
  0
VERTEX
  8
LAYER1
 10
12.0312
 20
7.5278
 30
0
 70
     0
  0
VERTEX
  8
LAYER1
 10
12.0174
 20
7.5278
 30
0
 70
     0
  0
SEQEND
  0
LINE
  8
LAYER1
  6
CONTINUOUS
 62
     7
 10
11.9479
 20
7.5278
 30
0
 11
12.0174
 21
7.5278
 31
0
  0
POLYLINE
  8
LAYER1
  6
CONTINUOUS
 62
     7
 66
     1
 70
     0
 40
0.0078
 41
0.0078
  0
VERTEX
  8
LAYER1
 10
11.8507
 20
7.6111
 30
0
 70
     0
  0
VERTEX
  8
LAYER1
 10
11.8646
 20
7.5972
 30
0
 70
     0
  0
SEQEND
  0
LINE
  8
LAYER1
  6
CONTINUOUS
 62
     7
 10
11.8646
 20
7.5972
 30
0
 11
11.934
 21
7.5278
 31
0
  0
POLYLINE
  8
LAYER1
  6
CONTINUOUS
 62
     7
 66
     1
 70
     0
 40
0.0078
 41
0.0078
  0
VERTEX
  8
LAYER1
 10
12.1007
 20
7.5972
 30
0
 70
     0
  0
VERTEX
  8
LAYER1
 10
12.1007
 20
7.5972
 30
0
 70
     0
  0
VERTEX
  8
LAYER1
 10
12.1146
 20
7.6111
 30
0
 70
     0
  0
VERTEX
  8
LAYER1
 10
12.1146
 20
7.6111
 30
0
 70
     0
  0
SEQEND
  0
LINE
  8
LAYER1
  6
CONTINUOUS
 62
     7
 10
12.1007
 20
7.5972
 30
0
 11
12.0312
 21
7.5278
 31
0
  0
POLYLINE
  8
LAYER1
  6
CONTINUOUS
 62
     7
 66
     1
 70
     0
 40
0.0078
 41
0.0078
  0
VERTEX
  8
LAYER1
 10
12.2812
 20
7.5278
 30
0
 70
     0
  0
VERTEX
  8
LAYER1
 10
12.2674
 20
7.5278
 30
0
 70
     0
  0
SEQEND
  0
POLYLINE
  8
LAYER1
  6
CONTINUOUS
 62
     7
 66
     1
 70
     0
 40
0.0078
 41
0.0078
  0
VERTEX
  8
LAYER1
 10
12.3646
 20
7.5278
 30
0
 70
     0
  0
VERTEX
  8
LAYER1
 10
12.3507
 20
7.5278
 30
0
 70
     0
  0
SEQEND
  0
LINE
  8
LAYER1
  6
CONTINUOUS
 62
     7
 10
12.2812
 20
7.5278
 30
0
 11
12.3507
 21
7.5278
 31
0
  0
POLYLINE
  8
LAYER1
  6
CONTINUOUS
 62
     7
 66
     1
 70
     0
 40
0.0078
 41
0.0078
  0
VERTEX
  8
LAYER1
 10
12.184
 20
7.6111
 30
0
 70
     0
  0
VERTEX
  8
LAYER1
 10
12.1979
 20
7.5972
 30
0
 70
     0
  0
SEQEND
  0
LINE
  8
LAYER1
  6
CONTINUOUS
 62
     7
 10
12.1979
 20
7.5972
 30
0
 11
12.2674
 21
7.5278
 31
0
  0
POLYLINE
  8
LAYER1
  6
CONTINUOUS
 62
     7
 66
     1
 70
     0
 40
0.0078
 41
0.0078
  0
VERTEX
  8
LAYER1
 10
12.434
 20
7.5972
 30
0
 70
     0
  0
VERTEX
  8
LAYER1
 10
12.434
 20
7.5972
 30
0
 70
     0
  0
VERTEX
  8
LAYER1
 10
12.4479
 20
7.6111
 30
0
 70
     0
  0
VERTEX
  8
LAYER1
 10
12.4479
 20
7.6111
 30
0
 70
     0
  0
SEQEND
  0
LINE
  8
LAYER1
  6
CONTINUOUS
 62
     7
 10
12.434
 20
7.5972
 30
0
 11
12.3646
 21
7.5278
 31
0
  0
POLYLINE
  8
LAYER1
  6
CONTINUOUS
 62
     7
 66
     1
 70
     0
 40
0.0078
 41
0.0078
  0
VERTEX
  8
LAYER1
 10
12.6146
 20
7.5278
 30
0
 70
     0
  0
VERTEX
  8
LAYER1
 10
12.6007
 20
7.5278
 30
0
 70
     0
  0
SEQEND
  0
LINE
  8
LAYER1
  6
CONTINUOUS
 62
     7
 10
12.6146
 20
7.5278
 30
0
 11
12.684
 21
7.5278
 31
0
  0
POLYLINE
  8
LAYER1
  6
CONTINUOUS
 62
     7
 66
     1
 70
     0
 40
0.0078
 41
0.0078
  0
VERTEX
  8
LAYER1
 10
12.5174
 20
7.6111
 30
0
 70
     0
  0
VERTEX
  8
LAYER1
 10
12.5312
 20
7.5972
 30
0
 70
     0
  0
SEQEND
  0
LINE
  8
LAYER1
  6
CONTINUOUS
 62
     7
 10
12.5312
 20
7.5972
 30
0
 11
12.6007
 21
7.5278
 31
0
  0
LINE
  8
LAYER1
  6
CONTINUOUS
 62
     7
 10
10.1146
 20
7.6111
 30
0
 11
10.184
 21
7.6111
 31
0
  0
LINE
  8
LAYER1
  6
CONTINUOUS
 62
     7
 10
10.4479
 20
7.6111
 30
0
 11
10.5174
 21
7.6111
 31
0
  0
LINE
  8
LAYER1
  6
CONTINUOUS
 62
     7
 10
10.7812
 20
7.6111
 30
0
 11
10.8507
 21
7.6111
 31
0
  0
LINE
  8
LAYER1
  6
CONTINUOUS
 62
     7
 10
11.1146
 20
7.6111
 30
0
 11
11.184
 21
7.6111
 31
0
  0
LINE
  8
LAYER1
  6
CONTINUOUS
 62
     7
 10
11.4479
 20
7.6111
 30
0
 11
11.5174
 21
7.6111
 31
0
  0
LINE
  8
LAYER1
  6
CONTINUOUS
 62
     7
 10
11.7812
 20
7.6111
 30
0
 11
11.8507
 21
7.6111
 31
0
  0
LINE
  8
LAYER1
  6
CONTINUOUS
 62
     7
 10
12.1146
 20
7.6111
 30
0
 11
12.184
 21
7.6111
 31
0
  0
LINE
  8
LAYER1
  6
CONTINUOUS
 62
     7
 10
12.4479
 20
7.6111
 30
0
 11
12.5174
 21
7.6111
 31
0
  0
POLYLINE
  8
LAYER1
  6
CONTINUOUS
 62
     7
 66
     1
 70
     0
 40
0.0078
 41
0.0078
  0
VERTEX
  8
LAYER1
 10
12.6979
 20
7.5278
 30
0
 70
     0
  0
VERTEX
  8
LAYER1
 10
12.684
 20
7.5278
 30
0
 70
     0
  0
SEQEND
  0
LINE
  8
LAYER1
  6
CONTINUOUS
 62
     7
 10
12.7257
 20
7.5694
 30
0
 11
12.6979
 21
7.5278
 31
0
  0
POLYLINE
  8
LAYER1
  6
CONTINUOUS
 62
     7
 66
     1
 70
     0
 40
0.0078
 41
0.0078
  0
VERTEX
  8
LAYER1
 10
9.9479
 20
7.5278
 30
0
 70
     0
  0
VERTEX
  8
LAYER1
 10
9.934
 20
7.5278
 30
0
 70
     0
  0
SEQEND
  0
POLYLINE
  8
LAYER1
  6
CONTINUOUS
 62
     7
 66
     1
 70
     0
 40
0.0078
 41
0.0078
  0
VERTEX
  8
LAYER1
 10
10.0312
 20
7.5278
 30
0
 70
     0
  0
VERTEX
  8
LAYER1
 10
10.0174
 20
7.5278
 30
0
 70
     0
  0
SEQEND
  0
LINE
  8
LAYER1
  6
CONTINUOUS
 62
     7
 10
9.9479
 20
7.5278
 30
0
 11
10.0174
 21
7.5278
 31
0
  0
LINE
  8
LAYER1
  6
CONTINUOUS
 62
     7
 10
9.8924
 20
7.5694
 30
0
 11
9.934
 21
7.5278
 31
0
  0
POLYLINE
  8
LAYER1
  6
CONTINUOUS
 62
     7
 66
     1
 70
     0
 40
0.0078
 41
0.0078
  0
VERTEX
  8
LAYER1
 10
10.1007
 20
7.5972
 30
0
 70
     0
  0
VERTEX
  8
LAYER1
 10
10.1007
 20
7.5972
 30
0
 70
     0
  0
VERTEX
  8
LAYER1
 10
10.1146
 20
7.6111
 30
0
 70
     0
  0
VERTEX
  8
LAYER1
 10
10.1146
 20
7.6111
 30
0
 70
     0
  0
SEQEND
  0
ENDBLK
  8
LAYER1
  0
BLOCK
  8
LAYER1
  2
Group28
 70
     0
 10
0
 20
0
 30
0
  0
LINE
  8
LAYER1
  6
CONTINUOUS
 62
     7
 10
10.1007
 20
7.5972
 30
0
 11
10.0312
 21
7.5278
 31
0
  0
POLYLINE
  8
LAYER1
  6
CONTINUOUS
 62
     7
 66
     1
 70
     0
 40
0.0078
 41
0.0078
  0
VERTEX
  8
LAYER1
 10
10.059
 20
6.7083
 30
0
 70
     0
  0
VERTEX
  8
LAYER1
 10
10.0729
 20
6.7083
 30
0
 70
     0
  0
SEQEND
  0
POLYLINE
  8
LAYER1
  6
CONTINUOUS
 62
     7
 66
     1
 70
     0
 40
0.0078
 41
0.0078
  0
VERTEX
  8
LAYER1
 10
9.9896
 20
6.6389
 30
0
 70
     0
  0
VERTEX
  8
LAYER1
 10
9.9896
 20
6.625
 30
0
 70
     0
  0
VERTEX
  8
LAYER1
 10
9.9896
 20
6.625
 30
0
 70
     0
  0
VERTEX
  8
LAYER1
 10
9.9757
 20
6.625
 30
0
 70
     0
  0
SEQEND
  0
LINE
  8
LAYER1
  6
CONTINUOUS
 62
     7
 10
10.059
 20
6.7083
 30
0
 11
9.9896
 21
6.6389
 31
0
  0
POLYLINE
  8
LAYER1
  6
CONTINUOUS
 62
     7
 66
     1
 70
     0
 40
0.0078
 41
0.0078
  0
VERTEX
  8
LAYER1
 10
9.934
 20
6.625
 30
0
 70
     0
  0
VERTEX
  8
LAYER1
 10
9.934
 20
6.625
 30
0
 70
     0
  0
VERTEX
  8
LAYER1
 10
9.9201
 20
6.625
 30
0
 70
     0
  0
VERTEX
  8
LAYER1
 10
9.9201
 20
6.6389
 30
0
 70
     0
  0
SEQEND
  0
LINE
  8
LAYER1
  6
CONTINUOUS
 62
     7
 10
9.934
 20
6.625
 30
0
 11
9.9757
 21
6.625
 31
0
  0
POLYLINE
  8
LAYER1
  6
CONTINUOUS
 62
     7
 66
     1
 70
     0
 40
0.0078
 41
0.0078
  0
VERTEX
  8
LAYER1
 10
10.1285
 20
6.7083
 30
0
 70
     0
  0
VERTEX
  8
LAYER1
 10
10.1424
 20
6.7083
 30
0
 70
     0
  0
SEQEND
  0
POLYLINE
  8
LAYER1
  6
CONTINUOUS
 62
     7
 66
     1
 70
     0
 40
0.0078
 41
0.0078
  0
VERTEX
  8
LAYER1
 10
10.3646
 20
6.7083
 30
0
 70
     0
  0
VERTEX
  8
LAYER1
 10
10.3785
 20
6.7083
 30
0
 70
     0
  0
SEQEND
  0
POLYLINE
  8
LAYER1
  6
CONTINUOUS
 62
     7
 66
     1
 70
     0
 40
0.0078
 41
0.0078
  0
VERTEX
  8
LAYER1
 10
10.2951
 20
6.6389
 30
0
 70
     0
  0
VERTEX
  8
LAYER1
 10
10.2951
 20
6.625
 30
0
 70
     0
  0
VERTEX
  8
LAYER1
 10
10.2951
 20
6.625
 30
0
 70
     0
  0
VERTEX
  8
LAYER1
 10
10.2812
 20
6.625
 30
0
 70
     0
  0
SEQEND
  0
LINE
  8
LAYER1
  6
CONTINUOUS
 62
     7
 10
10.3646
 20
6.7083
 30
0
 11
10.2951
 21
6.6389
 31
0
  0
POLYLINE
  8
LAYER1
  6
CONTINUOUS
 62
     7
 66
     1
 70
     0
 40
0.0078
 41
0.0078
  0
VERTEX
  8
LAYER1
 10
10.2396
 20
6.625
 30
0
 70
     0
  0
VERTEX
  8
LAYER1
 10
10.2396
 20
6.625
 30
0
 70
     0
  0
VERTEX
  8
LAYER1
 10
10.2257
 20
6.625
 30
0
 70
     0
  0
VERTEX
  8
LAYER1
 10
10.2257
 20
6.6389
 30
0
 70
     0
  0
SEQEND
  0
LINE
  8
LAYER1
  6
CONTINUOUS
 62
     7
 10
10.2396
 20
6.625
 30
0
 11
10.2812
 21
6.625
 31
0
  0
LINE
  8
LAYER1
  6
CONTINUOUS
 62
     7
 10
10.1424
 20
6.7083
 30
0
 11
10.2257
 21
6.6389
 31
0
  0
POLYLINE
  8
LAYER1
  6
CONTINUOUS
 62
     7
 66
     1
 70
     0
 40
0.0078
 41
0.0078
  0
VERTEX
  8
LAYER1
 10
10.434
 20
6.7083
 30
0
 70
     0
  0
VERTEX
  8
LAYER1
 10
10.4479
 20
6.7083
 30
0
 70
     0
  0
SEQEND
  0
POLYLINE
  8
LAYER1
  6
CONTINUOUS
 62
     7
 66
     1
 70
     0
 40
0.0078
 41
0.0078
  0
VERTEX
  8
LAYER1
 10
10.6701
 20
6.7083
 30
0
 70
     0
  0
VERTEX
  8
LAYER1
 10
10.684
 20
6.7083
 30
0
 70
     0
  0
SEQEND
  0
POLYLINE
  8
LAYER1
  6
CONTINUOUS
 62
     7
 66
     1
 70
     0
 40
0.0078
 41
0.0078
  0
VERTEX
  8
LAYER1
 10
10.6007
 20
6.6389
 30
0
 70
     0
  0
VERTEX
  8
LAYER1
 10
10.5868
 20
6.625
 30
0
 70
     0
  0
SEQEND
  0
LINE
  8
LAYER1
  6
CONTINUOUS
 62
     7
 10
10.6701
 20
6.7083
 30
0
 11
10.6007
 21
6.6389
 31
0
  0
POLYLINE
  8
LAYER1
  6
CONTINUOUS
 62
     7
 66
     1
 70
     0
 40
0.0078
 41
0.0078
  0
VERTEX
  8
LAYER1
 10
10.5312
 20
6.625
 30
0
 70
     0
  0
VERTEX
  8
LAYER1
 10
10.5174
 20
6.6389
 30
0
 70
     0
  0
SEQEND
  0
LINE
  8
LAYER1
  6
CONTINUOUS
 62
     7
 10
10.5312
 20
6.625
 30
0
 11
10.5868
 21
6.625
 31
0
  0
LINE
  8
LAYER1
  6
CONTINUOUS
 62
     7
 10
10.4479
 20
6.7083
 30
0
 11
10.5174
 21
6.6389
 31
0
  0
POLYLINE
  8
LAYER1
  6
CONTINUOUS
 62
     7
 66
     1
 70
     0
 40
0.0078
 41
0.0078
  0
VERTEX
  8
LAYER1
 10
10.7396
 20
6.7083
 30
0
 70
     0
  0
VERTEX
  8
LAYER1
 10
10.7535
 20
6.7083
 30
0
 70
     0
  0
SEQEND
  0
POLYLINE
  8
LAYER1
  6
CONTINUOUS
 62
     7
 66
     1
 70
     0
 40
0.0078
 41
0.0078
  0
VERTEX
  8
LAYER1
 10
10.9757
 20
6.7083
 30
0
 70
     0
  0
VERTEX
  8
LAYER1
 10
10.9896
 20
6.7083
 30
0
 70
     0
  0
SEQEND
  0
POLYLINE
  8
LAYER1
  6
CONTINUOUS
 62
     7
 66
     1
 70
     0
 40
0.0078
 41
0.0078
  0
VERTEX
  8
LAYER1
 10
10.8924
 20
6.6389
 30
0
 70
     0
  0
VERTEX
  8
LAYER1
 10
10.8924
 20
6.625
 30
0
 70
     0
  0
VERTEX
  8
LAYER1
 10
10.8924
 20
6.625
 30
0
 70
     0
  0
VERTEX
  8
LAYER1
 10
10.8785
 20
6.625
 30
0
 70
     0
  0
SEQEND
  0
LINE
  8
LAYER1
  6
CONTINUOUS
 62
     7
 10
10.9757
 20
6.7083
 30
0
 11
10.8924
 21
6.6389
 31
0
  0
POLYLINE
  8
LAYER1
  6
CONTINUOUS
 62
     7
 66
     1
 70
     0
 40
0.0078
 41
0.0078
  0
VERTEX
  8
LAYER1
 10
10.8368
 20
6.625
 30
0
 70
     0
  0
VERTEX
  8
LAYER1
 10
10.8229
 20
6.6389
 30
0
 70
     0
  0
SEQEND
  0
LINE
  8
LAYER1
  6
CONTINUOUS
 62
     7
 10
10.8368
 20
6.625
 30
0
 11
10.8785
 21
6.625
 31
0
  0
LINE
  8
LAYER1
  6
CONTINUOUS
 62
     7
 10
10.7535
 20
6.7083
 30
0
 11
10.8229
 21
6.6389
 31
0
  0
POLYLINE
  8
LAYER1
  6
CONTINUOUS
 62
     7
 66
     1
 70
     0
 40
0.0078
 41
0.0078
  0
VERTEX
  8
LAYER1
 10
11.0451
 20
6.7083
 30
0
 70
     0
  0
VERTEX
  8
LAYER1
 10
11.059
 20
6.7083
 30
0
 70
     0
  0
SEQEND
  0
POLYLINE
  8
LAYER1
  6
CONTINUOUS
 62
     7
 66
     1
 70
     0
 40
0.0078
 41
0.0078
  0
VERTEX
  8
LAYER1
 10
11.2674
 20
6.7083
 30
0
 70
     0
  0
VERTEX
  8
LAYER1
 10
11.2812
 20
6.7083
 30
0
 70
     0
  0
SEQEND
  0
POLYLINE
  8
LAYER1
  6
CONTINUOUS
 62
     7
 66
     1
 70
     0
 40
0.0078
 41
0.0078
  0
VERTEX
  8
LAYER1
 10
11.1979
 20
6.6389
 30
0
 70
     0
  0
VERTEX
  8
LAYER1
 10
11.1979
 20
6.625
 30
0
 70
     0
  0
VERTEX
  8
LAYER1
 10
11.1979
 20
6.625
 30
0
 70
     0
  0
VERTEX
  8
LAYER1
 10
11.184
 20
6.625
 30
0
 70
     0
  0
SEQEND
  0
LINE
  8
LAYER1
  6
CONTINUOUS
 62
     7
 10
11.2674
 20
6.7083
 30
0
 11
11.1979
 21
6.6389
 31
0
  0
POLYLINE
  8
LAYER1
  6
CONTINUOUS
 62
     7
 66
     1
 70
     0
 40
0.0078
 41
0.0078
  0
VERTEX
  8
LAYER1
 10
11.1424
 20
6.625
 30
0
 70
     0
  0
VERTEX
  8
LAYER1
 10
11.1424
 20
6.625
 30
0
 70
     0
  0
VERTEX
  8
LAYER1
 10
11.1285
 20
6.625
 30
0
 70
     0
  0
VERTEX
  8
LAYER1
 10
11.1285
 20
6.6389
 30
0
 70
     0
  0
SEQEND
  0
LINE
  8
LAYER1
  6
CONTINUOUS
 62
     7
 10
11.1424
 20
6.625
 30
0
 11
11.184
 21
6.625
 31
0
  0
LINE
  8
LAYER1
  6
CONTINUOUS
 62
     7
 10
11.059
 20
6.7083
 30
0
 11
11.1285
 21
6.6389
 31
0
  0
POLYLINE
  8
LAYER1
  6
CONTINUOUS
 62
     7
 66
     1
 70
     0
 40
0.0078
 41
0.0078
  0
VERTEX
  8
LAYER1
 10
11.3368
 20
6.7083
 30
0
 70
     0
  0
VERTEX
  8
LAYER1
 10
11.3507
 20
6.7083
 30
0
 70
     0
  0
SEQEND
  0
POLYLINE
  8
LAYER1
  6
CONTINUOUS
 62
     7
 66
     1
 70
     0
 40
0.0078
 41
0.0078
  0
VERTEX
  8
LAYER1
 10
11.5729
 20
6.7083
 30
0
 70
     0
  0
VERTEX
  8
LAYER1
 10
11.5868
 20
6.7083
 30
0
 70
     0
  0
SEQEND
  0
POLYLINE
  8
LAYER1
  6
CONTINUOUS
 62
     7
 66
     1
 70
     0
 40
0.0078
 41
0.0078
  0
VERTEX
  8
LAYER1
 10
11.5035
 20
6.6389
 30
0
 70
     0
  0
VERTEX
  8
LAYER1
 10
11.5035
 20
6.625
 30
0
 70
     0
  0
VERTEX
  8
LAYER1
 10
11.5035
 20
6.625
 30
0
 70
     0
  0
VERTEX
  8
LAYER1
 10
11.4896
 20
6.625
 30
0
 70
     0
  0
SEQEND
  0
LINE
  8
LAYER1
  6
CONTINUOUS
 62
     7
 10
11.5729
 20
6.7083
 30
0
 11
11.5035
 21
6.6389
 31
0
  0
POLYLINE
  8
LAYER1
  6
CONTINUOUS
 62
     7
 66
     1
 70
     0
 40
0.0078
 41
0.0078
  0
VERTEX
  8
LAYER1
 10
11.4479
 20
6.625
 30
0
 70
     0
  0
VERTEX
  8
LAYER1
 10
11.4479
 20
6.625
 30
0
 70
     0
  0
VERTEX
  8
LAYER1
 10
11.434
 20
6.625
 30
0
 70
     0
  0
VERTEX
  8
LAYER1
 10
11.434
 20
6.6389
 30
0
 70
     0
  0
SEQEND
  0
LINE
  8
LAYER1
  6
CONTINUOUS
 62
     7
 10
11.4479
 20
6.625
 30
0
 11
11.4896
 21
6.625
 31
0
  0
LINE
  8
LAYER1
  6
CONTINUOUS
 62
     7
 10
11.3507
 20
6.7083
 30
0
 11
11.434
 21
6.6389
 31
0
  0
POLYLINE
  8
LAYER1
  6
CONTINUOUS
 62
     7
 66
     1
 70
     0
 40
0.0078
 41
0.0078
  0
VERTEX
  8
LAYER1
 10
11.6424
 20
6.7083
 30
0
 70
     0
  0
VERTEX
  8
LAYER1
 10
11.6562
 20
6.7083
 30
0
 70
     0
  0
SEQEND
  0
POLYLINE
  8
LAYER1
  6
CONTINUOUS
 62
     7
 66
     1
 70
     0
 40
0.0078
 41
0.0078
  0
VERTEX
  8
LAYER1
 10
11.8785
 20
6.7083
 30
0
 70
     0
  0
VERTEX
  8
LAYER1
 10
11.8924
 20
6.7083
 30
0
 70
     0
  0
SEQEND
  0
POLYLINE
  8
LAYER1
  6
CONTINUOUS
 62
     7
 66
     1
 70
     0
 40
0.0078
 41
0.0078
  0
VERTEX
  8
LAYER1
 10
11.809
 20
6.6389
 30
0
 70
     0
  0
VERTEX
  8
LAYER1
 10
11.7951
 20
6.625
 30
0
 70
     0
  0
SEQEND
  0
LINE
  8
LAYER1
  6
CONTINUOUS
 62
     7
 10
11.8785
 20
6.7083
 30
0
 11
11.809
 21
6.6389
 31
0
  0
POLYLINE
  8
LAYER1
  6
CONTINUOUS
 62
     7
 66
     1
 70
     0
 40
0.0078
 41
0.0078
  0
VERTEX
  8
LAYER1
 10
11.7396
 20
6.625
 30
0
 70
     0
  0
VERTEX
  8
LAYER1
 10
11.7257
 20
6.6389
 30
0
 70
     0
  0
SEQEND
  0
LINE
  8
LAYER1
  6
CONTINUOUS
 62
     7
 10
11.7396
 20
6.625
 30
0
 11
11.7951
 21
6.625
 31
0
  0
LINE
  8
LAYER1
  6
CONTINUOUS
 62
     7
 10
11.6562
 20
6.7083
 30
0
 11
11.7257
 21
6.6389
 31
0
  0
POLYLINE
  8
LAYER1
  6
CONTINUOUS
 62
     7
 66
     1
 70
     0
 40
0.0078
 41
0.0078
  0
VERTEX
  8
LAYER1
 10
11.9479
 20
6.7083
 30
0
 70
     0
  0
VERTEX
  8
LAYER1
 10
11.9618
 20
6.7083
 30
0
 70
     0
  0
SEQEND
  0
POLYLINE
  8
LAYER1
  6
CONTINUOUS
 62
     7
 66
     1
 70
     0
 40
0.0078
 41
0.0078
  0
VERTEX
  8
LAYER1
 10
12.184
 20
6.7083
 30
0
 70
     0
  0
VERTEX
  8
LAYER1
 10
12.1979
 20
6.7083
 30
0
 70
     0
  0
SEQEND
  0
POLYLINE
  8
LAYER1
  6
CONTINUOUS
 62
     7
 66
     1
 70
     0
 40
0.0078
 41
0.0078
  0
VERTEX
  8
LAYER1
 10
12.1007
 20
6.6389
 30
0
 70
     0
  0
VERTEX
  8
LAYER1
 10
12.1007
 20
6.625
 30
0
 70
     0
  0
VERTEX
  8
LAYER1
 10
12.1007
 20
6.625
 30
0
 70
     0
  0
VERTEX
  8
LAYER1
 10
12.0868
 20
6.625
 30
0
 70
     0
  0
SEQEND
  0
LINE
  8
LAYER1
  6
CONTINUOUS
 62
     7
 10
12.184
 20
6.7083
 30
0
 11
12.1007
 21
6.6389
 31
0
  0
POLYLINE
  8
LAYER1
  6
CONTINUOUS
 62
     7
 66
     1
 70
     0
 40
0.0078
 41
0.0078
  0
VERTEX
  8
LAYER1
 10
12.0451
 20
6.625
 30
0
 70
     0
  0
VERTEX
  8
LAYER1
 10
12.0312
 20
6.6389
 30
0
 70
     0
  0
SEQEND
  0
LINE
  8
LAYER1
  6
CONTINUOUS
 62
     7
 10
12.0451
 20
6.625
 30
0
 11
12.0868
 21
6.625
 31
0
  0
LINE
  8
LAYER1
  6
CONTINUOUS
 62
     7
 10
11.9618
 20
6.7083
 30
0
 11
12.0312
 21
6.6389
 31
0
  0
POLYLINE
  8
LAYER1
  6
CONTINUOUS
 62
     7
 66
     1
 70
     0
 40
0.0078
 41
0.0078
  0
VERTEX
  8
LAYER1
 10
12.2535
 20
6.7083
 30
0
 70
     0
  0
VERTEX
  8
LAYER1
 10
12.2674
 20
6.7083
 30
0
 70
     0
  0
SEQEND
  0
POLYLINE
  8
LAYER1
  6
CONTINUOUS
 62
     7
 66
     1
 70
     0
 40
0.0078
 41
0.0078
  0
VERTEX
  8
LAYER1
 10
12.4757
 20
6.7083
 30
0
 70
     0
  0
VERTEX
  8
LAYER1
 10
12.4896
 20
6.7083
 30
0
 70
     0
  0
SEQEND
  0
POLYLINE
  8
LAYER1
  6
CONTINUOUS
 62
     7
 66
     1
 70
     0
 40
0.0078
 41
0.0078
  0
VERTEX
  8
LAYER1
 10
12.4062
 20
6.6389
 30
0
 70
     0
  0
VERTEX
  8
LAYER1
 10
12.4062
 20
6.625
 30
0
 70
     0
  0
VERTEX
  8
LAYER1
 10
12.4062
 20
6.625
 30
0
 70
     0
  0
VERTEX
  8
LAYER1
 10
12.3924
 20
6.625
 30
0
 70
     0
  0
SEQEND
  0
LINE
  8
LAYER1
  6
CONTINUOUS
 62
     7
 10
12.4757
 20
6.7083
 30
0
 11
12.4062
 21
6.6389
 31
0
  0
POLYLINE
  8
LAYER1
  6
CONTINUOUS
 62
     7
 66
     1
 70
     0
 40
0.0078
 41
0.0078
  0
VERTEX
  8
LAYER1
 10
12.3507
 20
6.625
 30
0
 70
     0
  0
VERTEX
  8
LAYER1
 10
12.3507
 20
6.625
 30
0
 70
     0
  0
VERTEX
  8
LAYER1
 10
12.3368
 20
6.625
 30
0
 70
     0
  0
VERTEX
  8
LAYER1
 10
12.3368
 20
6.6389
 30
0
 70
     0
  0
SEQEND
  0
LINE
  8
LAYER1
  6
CONTINUOUS
 62
     7
 10
12.3507
 20
6.625
 30
0
 11
12.3924
 21
6.625
 31
0
  0
LINE
  8
LAYER1
  6
CONTINUOUS
 62
     7
 10
12.2674
 20
6.7083
 30
0
 11
12.3368
 21
6.6389
 31
0
  0
POLYLINE
  8
LAYER1
  6
CONTINUOUS
 62
     7
 66
     1
 70
     0
 40
0.0078
 41
0.0078
  0
VERTEX
  8
LAYER1
 10
12.5451
 20
6.7083
 30
0
 70
     0
  0
VERTEX
  8
LAYER1
 10
12.559
 20
6.7083
 30
0
 70
     0
  0
SEQEND
  0
POLYLINE
  8
LAYER1
  6
CONTINUOUS
 62
     7
 66
     1
 70
     0
 40
0.0078
 41
0.0078
  0
VERTEX
  8
LAYER1
 10
12.6562
 20
6.625
 30
0
 70
     0
  0
VERTEX
  8
LAYER1
 10
12.6562
 20
6.625
 30
0
 70
     0
  0
VERTEX
  8
LAYER1
 10
12.6424
 20
6.625
 30
0
 70
     0
  0
VERTEX
  8
LAYER1
 10
12.6424
 20
6.6389
 30
0
 70
     0
  0
SEQEND
  0
LINE
  8
LAYER1
  6
CONTINUOUS
 62
     7
 10
12.6562
 20
6.625
 30
0
 11
12.6979
 21
6.625
 31
0
  0
LINE
  8
LAYER1
  6
CONTINUOUS
 62
     7
 10
12.559
 20
6.7083
 30
0
 11
12.6424
 21
6.6389
 31
0
  0
LINE
  8
LAYER1
  6
CONTINUOUS
 62
     7
 10
10.0729
 20
6.7083
 30
0
 11
10.1285
 21
6.7083
 31
0
  0
LINE
  8
LAYER1
  6
CONTINUOUS
 62
     7
 10
10.3785
 20
6.7083
 30
0
 11
10.434
 21
6.7083
 31
0
  0
LINE
  8
LAYER1
  6
CONTINUOUS
 62
     7
 10
10.684
 20
6.7083
 30
0
 11
10.7396
 21
6.7083
 31
0
  0
LINE
  8
LAYER1
  6
CONTINUOUS
 62
     7
 10
10.9896
 20
6.7083
 30
0
 11
11.0451
 21
6.7083
 31
0
  0
LINE
  8
LAYER1
  6
CONTINUOUS
 62
     7
 10
11.2812
 20
6.7083
 30
0
 11
11.3368
 21
6.7083
 31
0
  0
LINE
  8
LAYER1
  6
CONTINUOUS
 62
     7
 10
11.5868
 20
6.7083
 30
0
 11
11.6424
 21
6.7083
 31
0
  0
LINE
  8
LAYER1
  6
CONTINUOUS
 62
     7
 10
11.8924
 20
6.7083
 30
0
 11
11.9479
 21
6.7083
 31
0
  0
LINE
  8
LAYER1
  6
CONTINUOUS
 62
     7
 10
12.1979
 20
6.7083
 30
0
 11
12.2535
 21
6.7083
 31
0
  0
LINE
  8
LAYER1
  6
CONTINUOUS
 62
     7
 10
12.4896
 20
6.7083
 30
0
 11
12.5451
 21
6.7083
 31
0
  0
POLYLINE
  8
LAYER1
  6
CONTINUOUS
 62
     7
 66
     1
 70
     0
 40
0.0078
 41
0.0078
  0
VERTEX
  8
LAYER1
 10
12.7118
 20
6.6389
 30
0
 70
     0
  0
VERTEX
  8
LAYER1
 10
12.7118
 20
6.625
 30
0
 70
     0
  0
VERTEX
  8
LAYER1
 10
12.7118
 20
6.625
 30
0
 70
     0
  0
VERTEX
  8
LAYER1
 10
12.6979
 20
6.625
 30
0
 70
     0
  0
SEQEND
  0
LINE
  8
LAYER1
  6
CONTINUOUS
 62
     7
 10
9.8785
 20
6.6667
 30
0
 11
9.9201
 21
6.6389
 31
0
  0
ENDBLK
  8
LAYER1
  0
BLOCK
  8
LAYER1
  2
Group29
 70
     0
 10
0
 20
0
 30
0
  0
LINE
  8
LAYER1
  6
CONTINUOUS
 62
     7
 10
12.7535
 20
6.6667
 30
0
 11
12.7118
 21
6.6389
 31
0
  0
POLYLINE
  8
LAYER1
  6
CONTINUOUS
 62
     7
 66
     1
 70
     0
 40
0.0078
 41
0.0078
  0
VERTEX
  8
LAYER1
 10
10.0451
 20
5.7361
 30
0
 70
     0
  0
VERTEX
  8
LAYER1
 10
10.0451
 20
5.7361
 30
0
 70
     0
  0
SEQEND
  0
LINE
  8
LAYER1
  6
CONTINUOUS
 62
     7
 10
10.0451
 20
5.7361
 30
0
 11
9.9896
 21
5.7778
 31
0
  0
LINE
  8
LAYER1
  6
CONTINUOUS
 62
     7
 10
10.059
 20
5.7361
 30
0
 11
10.0451
 21
5.7361
 31
0
  0
POLYLINE
  8
LAYER1
  6
CONTINUOUS
 62
     7
 66
     1
 70
     0
 40
0.0078
 41
0.0078
  0
VERTEX
  8
LAYER1
 10
10.1424
 20
5.7778
 30
0
 70
     0
  0
VERTEX
  8
LAYER1
 10
10.1562
 20
5.7778
 30
0
 70
     0
  0
SEQEND
  0
LINE
  8
LAYER1
  6
CONTINUOUS
 62
     7
 10
10.1562
 20
5.7778
 30
0
 11
10.1701
 21
5.7778
 31
0
  0
POLYLINE
  8
LAYER1
  6
CONTINUOUS
 62
     7
 66
     1
 70
     0
 40
0.0078
 41
0.0078
  0
VERTEX
  8
LAYER1
 10
10.0868
 20
5.7361
 30
0
 70
     0
  0
VERTEX
  8
LAYER1
 10
10.0729
 20
5.7361
 30
0
 70
     0
  0
SEQEND
  0
LINE
  8
LAYER1
  6
CONTINUOUS
 62
     7
 10
10.0868
 20
5.7361
 30
0
 11
10.1424
 21
5.7778
 31
0
  0
LINE
  8
LAYER1
  6
CONTINUOUS
 62
     7
 10
10.059
 20
5.7361
 30
0
 11
10.0729
 21
5.7361
 31
0
  0
POLYLINE
  8
LAYER1
  6
CONTINUOUS
 62
     7
 66
     1
 70
     0
 40
0.0078
 41
0.0078
  0
VERTEX
  8
LAYER1
 10
10.184
 20
5.7778
 30
0
 70
     0
  0
VERTEX
  8
LAYER1
 10
10.1979
 20
5.7778
 30
0
 70
     0
  0
SEQEND
  0
LINE
  8
LAYER1
  6
CONTINUOUS
 62
     7
 10
10.184
 20
5.7778
 30
0
 11
10.1701
 21
5.7778
 31
0
  0
POLYLINE
  8
LAYER1
  6
CONTINUOUS
 62
     7
 66
     1
 70
     0
 40
0.0078
 41
0.0078
  0
VERTEX
  8
LAYER1
 10
10.2535
 20
5.7361
 30
0
 70
     0
  0
VERTEX
  8
LAYER1
 10
10.2535
 20
5.7361
 30
0
 70
     0
  0
SEQEND
  0
LINE
  8
LAYER1
  6
CONTINUOUS
 62
     7
 10
10.2535
 20
5.7361
 30
0
 11
10.1979
 21
5.7778
 31
0
  0
LINE
  8
LAYER1
  6
CONTINUOUS
 62
     7
 10
10.2674
 20
5.7361
 30
0
 11
10.2535
 21
5.7361
 31
0
  0
POLYLINE
  8
LAYER1
  6
CONTINUOUS
 62
     7
 66
     1
 70
     0
 40
0.0078
 41
0.0078
  0
VERTEX
  8
LAYER1
 10
10.3507
 20
5.7778
 30
0
 70
     0
  0
VERTEX
  8
LAYER1
 10
10.3646
 20
5.7778
 30
0
 70
     0
  0
SEQEND
  0
LINE
  8
LAYER1
  6
CONTINUOUS
 62
     7
 10
10.3646
 20
5.7778
 30
0
 11
10.3785
 21
5.7778
 31
0
  0
POLYLINE
  8
LAYER1
  6
CONTINUOUS
 62
     7
 66
     1
 70
     0
 40
0.0078
 41
0.0078
  0
VERTEX
  8
LAYER1
 10
10.2951
 20
5.7361
 30
0
 70
     0
  0
VERTEX
  8
LAYER1
 10
10.2812
 20
5.7361
 30
0
 70
     0
  0
SEQEND
  0
LINE
  8
LAYER1
  6
CONTINUOUS
 62
     7
 10
10.2951
 20
5.7361
 30
0
 11
10.3507
 21
5.7778
 31
0
  0
LINE
  8
LAYER1
  6
CONTINUOUS
 62
     7
 10
10.2674
 20
5.7361
 30
0
 11
10.2812
 21
5.7361
 31
0
  0
POLYLINE
  8
LAYER1
  6
CONTINUOUS
 62
     7
 66
     1
 70
     0
 40
0.0078
 41
0.0078
  0
VERTEX
  8
LAYER1
 10
10.3924
 20
5.7778
 30
0
 70
     0
  0
VERTEX
  8
LAYER1
 10
10.4062
 20
5.7778
 30
0
 70
     0
  0
SEQEND
  0
LINE
  8
LAYER1
  6
CONTINUOUS
 62
     7
 10
10.3924
 20
5.7778
 30
0
 11
10.3785
 21
5.7778
 31
0
  0
POLYLINE
  8
LAYER1
  6
CONTINUOUS
 62
     7
 66
     1
 70
     0
 40
0.0078
 41
0.0078
  0
VERTEX
  8
LAYER1
 10
10.4618
 20
5.7361
 30
0
 70
     0
  0
VERTEX
  8
LAYER1
 10
10.4618
 20
5.7361
 30
0
 70
     0
  0
SEQEND
  0
LINE
  8
LAYER1
  6
CONTINUOUS
 62
     7
 10
10.4618
 20
5.7361
 30
0
 11
10.4062
 21
5.7778
 31
0
  0
LINE
  8
LAYER1
  6
CONTINUOUS
 62
     7
 10
10.4757
 20
5.7361
 30
0
 11
10.4618
 21
5.7361
 31
0
  0
POLYLINE
  8
LAYER1
  6
CONTINUOUS
 62
     7
 66
     1
 70
     0
 40
0.0078
 41
0.0078
  0
VERTEX
  8
LAYER1
 10
10.559
 20
5.7778
 30
0
 70
     0
  0
VERTEX
  8
LAYER1
 10
10.5729
 20
5.7778
 30
0
 70
     0
  0
SEQEND
  0
LINE
  8
LAYER1
  6
CONTINUOUS
 62
     7
 10
10.5729
 20
5.7778
 30
0
 11
10.5868
 21
5.7778
 31
0
  0
POLYLINE
  8
LAYER1
  6
CONTINUOUS
 62
     7
 66
     1
 70
     0
 40
0.0078
 41
0.0078
  0
VERTEX
  8
LAYER1
 10
10.5035
 20
5.7361
 30
0
 70
     0
  0
VERTEX
  8
LAYER1
 10
10.4896
 20
5.7361
 30
0
 70
     0
  0
SEQEND
  0
LINE
  8
LAYER1
  6
CONTINUOUS
 62
     7
 10
10.5035
 20
5.7361
 30
0
 11
10.559
 21
5.7778
 31
0
  0
LINE
  8
LAYER1
  6
CONTINUOUS
 62
     7
 10
10.4757
 20
5.7361
 30
0
 11
10.4896
 21
5.7361
 31
0
  0
POLYLINE
  8
LAYER1
  6
CONTINUOUS
 62
     7
 66
     1
 70
     0
 40
0.0078
 41
0.0078
  0
VERTEX
  8
LAYER1
 10
10.6007
 20
5.7778
 30
0
 70
     0
  0
VERTEX
  8
LAYER1
 10
10.6146
 20
5.7778
 30
0
 70
     0
  0
SEQEND
  0
LINE
  8
LAYER1
  6
CONTINUOUS
 62
     7
 10
10.6007
 20
5.7778
 30
0
 11
10.5868
 21
5.7778
 31
0
  0
POLYLINE
  8
LAYER1
  6
CONTINUOUS
 62
     7
 66
     1
 70
     0
 40
0.0078
 41
0.0078
  0
VERTEX
  8
LAYER1
 10
10.6701
 20
5.7361
 30
0
 70
     0
  0
VERTEX
  8
LAYER1
 10
10.6701
 20
5.7361
 30
0
 70
     0
  0
SEQEND
  0
LINE
  8
LAYER1
  6
CONTINUOUS
 62
     7
 10
10.6701
 20
5.7361
 30
0
 11
10.6146
 21
5.7778
 31
0
  0
LINE
  8
LAYER1
  6
CONTINUOUS
 62
     7
 10
10.684
 20
5.7361
 30
0
 11
10.6701
 21
5.7361
 31
0
  0
POLYLINE
  8
LAYER1
  6
CONTINUOUS
 62
     7
 66
     1
 70
     0
 40
0.0078
 41
0.0078
  0
VERTEX
  8
LAYER1
 10
10.7674
 20
5.7778
 30
0
 70
     0
  0
VERTEX
  8
LAYER1
 10
10.7812
 20
5.7778
 30
0
 70
     0
  0
SEQEND
  0
LINE
  8
LAYER1
  6
CONTINUOUS
 62
     7
 10
10.7812
 20
5.7778
 30
0
 11
10.7951
 21
5.7778
 31
0
  0
POLYLINE
  8
LAYER1
  6
CONTINUOUS
 62
     7
 66
     1
 70
     0
 40
0.0078
 41
0.0078
  0
VERTEX
  8
LAYER1
 10
10.7118
 20
5.7361
 30
0
 70
     0
  0
VERTEX
  8
LAYER1
 10
10.6979
 20
5.7361
 30
0
 70
     0
  0
SEQEND
  0
LINE
  8
LAYER1
  6
CONTINUOUS
 62
     7
 10
10.7118
 20
5.7361
 30
0
 11
10.7674
 21
5.7778
 31
0
  0
LINE
  8
LAYER1
  6
CONTINUOUS
 62
     7
 10
10.684
 20
5.7361
 30
0
 11
10.6979
 21
5.7361
 31
0
  0
POLYLINE
  8
LAYER1
  6
CONTINUOUS
 62
     7
 66
     1
 70
     0
 40
0.0078
 41
0.0078
  0
VERTEX
  8
LAYER1
 10
10.809
 20
5.7778
 30
0
 70
     0
  0
VERTEX
  8
LAYER1
 10
10.8229
 20
5.7778
 30
0
 70
     0
  0
SEQEND
  0
LINE
  8
LAYER1
  6
CONTINUOUS
 62
     7
 10
10.809
 20
5.7778
 30
0
 11
10.7951
 21
5.7778
 31
0
  0
POLYLINE
  8
LAYER1
  6
CONTINUOUS
 62
     7
 66
     1
 70
     0
 40
0.0078
 41
0.0078
  0
VERTEX
  8
LAYER1
 10
10.8785
 20
5.7361
 30
0
 70
     0
  0
VERTEX
  8
LAYER1
 10
10.8785
 20
5.7361
 30
0
 70
     0
  0
SEQEND
  0
LINE
  8
LAYER1
  6
CONTINUOUS
 62
     7
 10
10.8785
 20
5.7361
 30
0
 11
10.8229
 21
5.7778
 31
0
  0
LINE
  8
LAYER1
  6
CONTINUOUS
 62
     7
 10
10.8924
 20
5.7361
 30
0
 11
10.8785
 21
5.7361
 31
0
  0
POLYLINE
  8
LAYER1
  6
CONTINUOUS
 62
     7
 66
     1
 70
     0
 40
0.0078
 41
0.0078
  0
VERTEX
  8
LAYER1
 10
10.9757
 20
5.7778
 30
0
 70
     0
  0
VERTEX
  8
LAYER1
 10
10.9896
 20
5.7778
 30
0
 70
     0
  0
SEQEND
  0
LINE
  8
LAYER1
  6
CONTINUOUS
 62
     7
 10
10.9896
 20
5.7778
 30
0
 11
11.0035
 21
5.7778
 31
0
  0
POLYLINE
  8
LAYER1
  6
CONTINUOUS
 62
     7
 66
     1
 70
     0
 40
0.0078
 41
0.0078
  0
VERTEX
  8
LAYER1
 10
10.9201
 20
5.7361
 30
0
 70
     0
  0
VERTEX
  8
LAYER1
 10
10.9062
 20
5.7361
 30
0
 70
     0
  0
SEQEND
  0
LINE
  8
LAYER1
  6
CONTINUOUS
 62
     7
 10
10.9201
 20
5.7361
 30
0
 11
10.9757
 21
5.7778
 31
0
  0
LINE
  8
LAYER1
  6
CONTINUOUS
 62
     7
 10
10.8924
 20
5.7361
 30
0
 11
10.9062
 21
5.7361
 31
0
  0
POLYLINE
  8
LAYER1
  6
CONTINUOUS
 62
     7
 66
     1
 70
     0
 40
0.0078
 41
0.0078
  0
VERTEX
  8
LAYER1
 10
11.0174
 20
5.7778
 30
0
 70
     0
  0
VERTEX
  8
LAYER1
 10
11.0312
 20
5.7778
 30
0
 70
     0
  0
SEQEND
  0
LINE
  8
LAYER1
  6
CONTINUOUS
 62
     7
 10
11.0174
 20
5.7778
 30
0
 11
11.0035
 21
5.7778
 31
0
  0
POLYLINE
  8
LAYER1
  6
CONTINUOUS
 62
     7
 66
     1
 70
     0
 40
0.0078
 41
0.0078
  0
VERTEX
  8
LAYER1
 10
11.0868
 20
5.7361
 30
0
 70
     0
  0
VERTEX
  8
LAYER1
 10
11.0868
 20
5.7361
 30
0
 70
     0
  0
SEQEND
  0
LINE
  8
LAYER1
  6
CONTINUOUS
 62
     7
 10
11.0868
 20
5.7361
 30
0
 11
11.0312
 21
5.7778
 31
0
  0
LINE
  8
LAYER1
  6
CONTINUOUS
 62
     7
 10
11.1007
 20
5.7361
 30
0
 11
11.0868
 21
5.7361
 31
0
  0
POLYLINE
  8
LAYER1
  6
CONTINUOUS
 62
     7
 66
     1
 70
     0
 40
0.0078
 41
0.0078
  0
VERTEX
  8
LAYER1
 10
11.184
 20
5.7778
 30
0
 70
     0
  0
VERTEX
  8
LAYER1
 10
11.1979
 20
5.7778
 30
0
 70
     0
  0
SEQEND
  0
LINE
  8
LAYER1
  6
CONTINUOUS
 62
     7
 10
11.1979
 20
5.7778
 30
0
 11
11.2118
 21
5.7778
 31
0
  0
POLYLINE
  8
LAYER1
  6
CONTINUOUS
 62
     7
 66
     1
 70
     0
 40
0.0078
 41
0.0078
  0
VERTEX
  8
LAYER1
 10
11.1285
 20
5.7361
 30
0
 70
     0
  0
VERTEX
  8
LAYER1
 10
11.1146
 20
5.7361
 30
0
 70
     0
  0
SEQEND
  0
LINE
  8
LAYER1
  6
CONTINUOUS
 62
     7
 10
11.1285
 20
5.7361
 30
0
 11
11.184
 21
5.7778
 31
0
  0
LINE
  8
LAYER1
  6
CONTINUOUS
 62
     7
 10
11.1007
 20
5.7361
 30
0
 11
11.1146
 21
5.7361
 31
0
  0
POLYLINE
  8
LAYER1
  6
CONTINUOUS
 62
     7
 66
     1
 70
     0
 40
0.0078
 41
0.0078
  0
VERTEX
  8
LAYER1
 10
11.2257
 20
5.7778
 30
0
 70
     0
  0
VERTEX
  8
LAYER1
 10
11.2396
 20
5.7778
 30
0
 70
     0
  0
SEQEND
  0
LINE
  8
LAYER1
  6
CONTINUOUS
 62
     7
 10
11.2257
 20
5.7778
 30
0
 11
11.2118
 21
5.7778
 31
0
  0
POLYLINE
  8
LAYER1
  6
CONTINUOUS
 62
     7
 66
     1
 70
     0
 40
0.0078
 41
0.0078
  0
VERTEX
  8
LAYER1
 10
11.2951
 20
5.7361
 30
0
 70
     0
  0
VERTEX
  8
LAYER1
 10
11.2951
 20
5.7361
 30
0
 70
     0
  0
SEQEND
  0
LINE
  8
LAYER1
  6
CONTINUOUS
 62
     7
 10
11.2951
 20
5.7361
 30
0
 11
11.2396
 21
5.7778
 31
0
  0
LINE
  8
LAYER1
  6
CONTINUOUS
 62
     7
 10
11.309
 20
5.7361
 30
0
 11
11.2951
 21
5.7361
 31
0
  0
POLYLINE
  8
LAYER1
  6
CONTINUOUS
 62
     7
 66
     1
 70
     0
 40
0.0078
 41
0.0078
  0
VERTEX
  8
LAYER1
 10
11.3924
 20
5.7778
 30
0
 70
     0
  0
VERTEX
  8
LAYER1
 10
11.4062
 20
5.7778
 30
0
 70
     0
  0
SEQEND
  0
LINE
  8
LAYER1
  6
CONTINUOUS
 62
     7
 10
11.4062
 20
5.7778
 30
0
 11
11.4201
 21
5.7778
 31
0
  0
POLYLINE
  8
LAYER1
  6
CONTINUOUS
 62
     7
 66
     1
 70
     0
 40
0.0078
 41
0.0078
  0
VERTEX
  8
LAYER1
 10
11.3368
 20
5.7361
 30
0
 70
     0
  0
VERTEX
  8
LAYER1
 10
11.3229
 20
5.7361
 30
0
 70
     0
  0
SEQEND
  0
LINE
  8
LAYER1
  6
CONTINUOUS
 62
     7
 10
11.3368
 20
5.7361
 30
0
 11
11.3924
 21
5.7778
 31
0
  0
LINE
  8
LAYER1
  6
CONTINUOUS
 62
     7
 10
11.309
 20
5.7361
 30
0
 11
11.3229
 21
5.7361
 31
0
  0
POLYLINE
  8
LAYER1
  6
CONTINUOUS
 62
     7
 66
     1
 70
     0
 40
0.0078
 41
0.0078
  0
VERTEX
  8
LAYER1
 10
11.434
 20
5.7778
 30
0
 70
     0
  0
VERTEX
  8
LAYER1
 10
11.4479
 20
5.7778
 30
0
 70
     0
  0
SEQEND
  0
LINE
  8
LAYER1
  6
CONTINUOUS
 62
     7
 10
11.434
 20
5.7778
 30
0
 11
11.4201
 21
5.7778
 31
0
  0
POLYLINE
  8
LAYER1
  6
CONTINUOUS
 62
     7
 66
     1
 70
     0
 40
0.0078
 41
0.0078
  0
VERTEX
  8
LAYER1
 10
11.5035
 20
5.7361
 30
0
 70
     0
  0
VERTEX
  8
LAYER1
 10
11.5035
 20
5.7361
 30
0
 70
     0
  0
SEQEND
  0
LINE
  8
LAYER1
  6
CONTINUOUS
 62
     7
 10
11.5035
 20
5.7361
 30
0
 11
11.4479
 21
5.7778
 31
0
  0
LINE
  8
LAYER1
  6
CONTINUOUS
 62
     7
 10
11.5174
 20
5.7361
 30
0
 11
11.5035
 21
5.7361
 31
0
  0
POLYLINE
  8
LAYER1
  6
CONTINUOUS
 62
     7
 66
     1
 70
     0
 40
0.0078
 41
0.0078
  0
VERTEX
  8
LAYER1
 10
11.6007
 20
5.7778
 30
0
 70
     0
  0
VERTEX
  8
LAYER1
 10
11.6146
 20
5.7778
 30
0
 70
     0
  0
SEQEND
  0
LINE
  8
LAYER1
  6
CONTINUOUS
 62
     7
 10
11.6146
 20
5.7778
 30
0
 11
11.6285
 21
5.7778
 31
0
  0
POLYLINE
  8
LAYER1
  6
CONTINUOUS
 62
     7
 66
     1
 70
     0
 40
0.0078
 41
0.0078
  0
VERTEX
  8
LAYER1
 10
11.5451
 20
5.7361
 30
0
 70
     0
  0
VERTEX
  8
LAYER1
 10
11.5312
 20
5.7361
 30
0
 70
     0
  0
SEQEND
  0
LINE
  8
LAYER1
  6
CONTINUOUS
 62
     7
 10
11.5451
 20
5.7361
 30
0
 11
11.6007
 21
5.7778
 31
0
  0
LINE
  8
LAYER1
  6
CONTINUOUS
 62
     7
 10
11.5174
 20
5.7361
 30
0
 11
11.5312
 21
5.7361
 31
0
  0
POLYLINE
  8
LAYER1
  6
CONTINUOUS
 62
     7
 66
     1
 70
     0
 40
0.0078
 41
0.0078
  0
VERTEX
  8
LAYER1
 10
11.6424
 20
5.7778
 30
0
 70
     0
  0
VERTEX
  8
LAYER1
 10
11.6562
 20
5.7778
 30
0
 70
     0
  0
SEQEND
  0
LINE
  8
LAYER1
  6
CONTINUOUS
 62
     7
 10
11.6424
 20
5.7778
 30
0
 11
11.6285
 21
5.7778
 31
0
  0
POLYLINE
  8
LAYER1
  6
CONTINUOUS
 62
     7
 66
     1
 70
     0
 40
0.0078
 41
0.0078
  0
VERTEX
  8
LAYER1
 10
11.7118
 20
5.7361
 30
0
 70
     0
  0
VERTEX
  8
LAYER1
 10
11.7118
 20
5.7361
 30
0
 70
     0
  0
SEQEND
  0
LINE
  8
LAYER1
  6
CONTINUOUS
 62
     7
 10
11.7118
 20
5.7361
 30
0
 11
11.6562
 21
5.7778
 31
0
  0
LINE
  8
LAYER1
  6
CONTINUOUS
 62
     7
 10
11.7257
 20
5.7361
 30
0
 11
11.7118
 21
5.7361
 31
0
  0
POLYLINE
  8
LAYER1
  6
CONTINUOUS
 62
     7
 66
     1
 70
     0
 40
0.0078
 41
0.0078
  0
VERTEX
  8
LAYER1
 10
11.809
 20
5.7778
 30
0
 70
     0
  0
VERTEX
  8
LAYER1
 10
11.8229
 20
5.7778
 30
0
 70
     0
  0
SEQEND
  0
LINE
  8
LAYER1
  6
CONTINUOUS
 62
     7
 10
11.8229
 20
5.7778
 30
0
 11
11.8368
 21
5.7778
 31
0
  0
POLYLINE
  8
LAYER1
  6
CONTINUOUS
 62
     7
 66
     1
 70
     0
 40
0.0078
 41
0.0078
  0
VERTEX
  8
LAYER1
 10
11.7535
 20
5.7361
 30
0
 70
     0
  0
VERTEX
  8
LAYER1
 10
11.7396
 20
5.7361
 30
0
 70
     0
  0
SEQEND
  0
LINE
  8
LAYER1
  6
CONTINUOUS
 62
     7
 10
11.7535
 20
5.7361
 30
0
 11
11.809
 21
5.7778
 31
0
  0
LINE
  8
LAYER1
  6
CONTINUOUS
 62
     7
 10
11.7257
 20
5.7361
 30
0
 11
11.7396
 21
5.7361
 31
0
  0
POLYLINE
  8
LAYER1
  6
CONTINUOUS
 62
     7
 66
     1
 70
     0
 40
0.0078
 41
0.0078
  0
VERTEX
  8
LAYER1
 10
11.8507
 20
5.7778
 30
0
 70
     0
  0
VERTEX
  8
LAYER1
 10
11.8646
 20
5.7778
 30
0
 70
     0
  0
SEQEND
  0
LINE
  8
LAYER1
  6
CONTINUOUS
 62
     7
 10
11.8507
 20
5.7778
 30
0
 11
11.8368
 21
5.7778
 31
0
  0
POLYLINE
  8
LAYER1
  6
CONTINUOUS
 62
     7
 66
     1
 70
     0
 40
0.0078
 41
0.0078
  0
VERTEX
  8
LAYER1
 10
11.9201
 20
5.7361
 30
0
 70
     0
  0
VERTEX
  8
LAYER1
 10
11.9201
 20
5.7361
 30
0
 70
     0
  0
SEQEND
  0
LINE
  8
LAYER1
  6
CONTINUOUS
 62
     7
 10
11.9201
 20
5.7361
 30
0
 11
11.8646
 21
5.7778
 31
0
  0
LINE
  8
LAYER1
  6
CONTINUOUS
 62
     7
 10
11.934
 20
5.7361
 30
0
 11
11.9201
 21
5.7361
 31
0
  0
POLYLINE
  8
LAYER1
  6
CONTINUOUS
 62
     7
 66
     1
 70
     0
 40
0.0078
 41
0.0078
  0
VERTEX
  8
LAYER1
 10
12.0174
 20
5.7778
 30
0
 70
     0
  0
VERTEX
  8
LAYER1
 10
12.0312
 20
5.7778
 30
0
 70
     0
  0
SEQEND
  0
LINE
  8
LAYER1
  6
CONTINUOUS
 62
     7
 10
12.0312
 20
5.7778
 30
0
 11
12.0451
 21
5.7778
 31
0
  0
POLYLINE
  8
LAYER1
  6
CONTINUOUS
 62
     7
 66
     1
 70
     0
 40
0.0078
 41
0.0078
  0
VERTEX
  8
LAYER1
 10
11.9618
 20
5.7361
 30
0
 70
     0
  0
VERTEX
  8
LAYER1
 10
11.9479
 20
5.7361
 30
0
 70
     0
  0
SEQEND
  0
LINE
  8
LAYER1
  6
CONTINUOUS
 62
     7
 10
11.9618
 20
5.7361
 30
0
 11
12.0174
 21
5.7778
 31
0
  0
LINE
  8
LAYER1
  6
CONTINUOUS
 62
     7
 10
11.934
 20
5.7361
 30
0
 11
11.9479
 21
5.7361
 31
0
  0
POLYLINE
  8
LAYER1
  6
CONTINUOUS
 62
     7
 66
     1
 70
     0
 40
0.0078
 41
0.0078
  0
VERTEX
  8
LAYER1
 10
12.059
 20
5.7778
 30
0
 70
     0
  0
VERTEX
  8
LAYER1
 10
12.0729
 20
5.7778
 30
0
 70
     0
  0
SEQEND
  0
LINE
  8
LAYER1
  6
CONTINUOUS
 62
     7
 10
12.059
 20
5.7778
 30
0
 11
12.0451
 21
5.7778
 31
0
  0
POLYLINE
  8
LAYER1
  6
CONTINUOUS
 62
     7
 66
     1
 70
     0
 40
0.0078
 41
0.0078
  0
VERTEX
  8
LAYER1
 10
12.1285
 20
5.7361
 30
0
 70
     0
  0
VERTEX
  8
LAYER1
 10
12.1285
 20
5.7361
 30
0
 70
     0
  0
SEQEND
  0
LINE
  8
LAYER1
  6
CONTINUOUS
 62
     7
 10
12.1285
 20
5.7361
 30
0
 11
12.0729
 21
5.7778
 31
0
  0
LINE
  8
LAYER1
  6
CONTINUOUS
 62
     7
 10
12.1424
 20
5.7361
 30
0
 11
12.1285
 21
5.7361
 31
0
  0
POLYLINE
  8
LAYER1
  6
CONTINUOUS
 62
     7
 66
     1
 70
     0
 40
0.0078
 41
0.0078
  0
VERTEX
  8
LAYER1
 10
12.2257
 20
5.7778
 30
0
 70
     0
  0
VERTEX
  8
LAYER1
 10
12.2396
 20
5.7778
 30
0
 70
     0
  0
SEQEND
  0
LINE
  8
LAYER1
  6
CONTINUOUS
 62
     7
 10
12.2396
 20
5.7778
 30
0
 11
12.2535
 21
5.7778
 31
0
  0
POLYLINE
  8
LAYER1
  6
CONTINUOUS
 62
     7
 66
     1
 70
     0
 40
0.0078
 41
0.0078
  0
VERTEX
  8
LAYER1
 10
12.1701
 20
5.7361
 30
0
 70
     0
  0
VERTEX
  8
LAYER1
 10
12.1562
 20
5.7361
 30
0
 70
     0
  0
SEQEND
  0
LINE
  8
LAYER1
  6
CONTINUOUS
 62
     7
 10
12.1701
 20
5.7361
 30
0
 11
12.2257
 21
5.7778
 31
0
  0
LINE
  8
LAYER1
  6
CONTINUOUS
 62
     7
 10
12.1424
 20
5.7361
 30
0
 11
12.1562
 21
5.7361
 31
0
  0
POLYLINE
  8
LAYER1
  6
CONTINUOUS
 62
     7
 66
     1
 70
     0
 40
0.0078
 41
0.0078
  0
VERTEX
  8
LAYER1
 10
12.2674
 20
5.7778
 30
0
 70
     0
  0
VERTEX
  8
LAYER1
 10
12.2812
 20
5.7778
 30
0
 70
     0
  0
SEQEND
  0
LINE
  8
LAYER1
  6
CONTINUOUS
 62
     7
 10
12.2674
 20
5.7778
 30
0
 11
12.2535
 21
5.7778
 31
0
  0
POLYLINE
  8
LAYER1
  6
CONTINUOUS
 62
     7
 66
     1
 70
     0
 40
0.0078
 41
0.0078
  0
VERTEX
  8
LAYER1
 10
12.3368
 20
5.7361
 30
0
 70
     0
  0
VERTEX
  8
LAYER1
 10
12.3368
 20
5.7361
 30
0
 70
     0
  0
SEQEND
  0
LINE
  8
LAYER1
  6
CONTINUOUS
 62
     7
 10
12.3368
 20
5.7361
 30
0
 11
12.2812
 21
5.7778
 31
0
  0
LINE
  8
LAYER1
  6
CONTINUOUS
 62
     7
 10
12.3507
 20
5.7361
 30
0
 11
12.3368
 21
5.7361
 31
0
  0
POLYLINE
  8
LAYER1
  6
CONTINUOUS
 62
     7
 66
     1
 70
     0
 40
0.0078
 41
0.0078
  0
VERTEX
  8
LAYER1
 10
12.434
 20
5.7778
 30
0
 70
     0
  0
VERTEX
  8
LAYER1
 10
12.4479
 20
5.7778
 30
0
 70
     0
  0
SEQEND
  0
LINE
  8
LAYER1
  6
CONTINUOUS
 62
     7
 10
12.4479
 20
5.7778
 30
0
 11
12.4618
 21
5.7778
 31
0
  0
POLYLINE
  8
LAYER1
  6
CONTINUOUS
 62
     7
 66
     1
 70
     0
 40
0.0078
 41
0.0078
  0
VERTEX
  8
LAYER1
 10
12.3785
 20
5.7361
 30
0
 70
     0
  0
VERTEX
  8
LAYER1
 10
12.3646
 20
5.7361
 30
0
 70
     0
  0
SEQEND
  0
LINE
  8
LAYER1
  6
CONTINUOUS
 62
     7
 10
12.3785
 20
5.7361
 30
0
 11
12.434
 21
5.7778
 31
0
  0
LINE
  8
LAYER1
  6
CONTINUOUS
 62
     7
 10
12.3507
 20
5.7361
 30
0
 11
12.3646
 21
5.7361
 31
0
  0
POLYLINE
  8
LAYER1
  6
CONTINUOUS
 62
     7
 66
     1
 70
     0
 40
0.0078
 41
0.0078
  0
VERTEX
  8
LAYER1
 10
12.4757
 20
5.7778
 30
0
 70
     0
  0
VERTEX
  8
LAYER1
 10
12.4896
 20
5.7778
 30
0
 70
     0
  0
SEQEND
  0
LINE
  8
LAYER1
  6
CONTINUOUS
 62
     7
 10
12.4757
 20
5.7778
 30
0
 11
12.4618
 21
5.7778
 31
0
  0
POLYLINE
  8
LAYER1
  6
CONTINUOUS
 62
     7
 66
     1
 70
     0
 40
0.0078
 41
0.0078
  0
VERTEX
  8
LAYER1
 10
12.5451
 20
5.7361
 30
0
 70
     0
  0
VERTEX
  8
LAYER1
 10
12.5451
 20
5.7361
 30
0
 70
     0
  0
SEQEND
  0
LINE
  8
LAYER1
  6
CONTINUOUS
 62
     7
 10
12.5451
 20
5.7361
 30
0
 11
12.4896
 21
5.7778
 31
0
  0
LINE
  8
LAYER1
  6
CONTINUOUS
 62
     7
 10
12.559
 20
5.7361
 30
0
 11
12.5451
 21
5.7361
 31
0
  0
POLYLINE
  8
LAYER1
  6
CONTINUOUS
 62
     7
 66
     1
 70
     0
 40
0.0078
 41
0.0078
  0
VERTEX
  8
LAYER1
 10
12.5868
 20
5.7361
 30
0
 70
     0
  0
VERTEX
  8
LAYER1
 10
12.5729
 20
5.7361
 30
0
 70
     0
  0
SEQEND
  0
LINE
  8
LAYER1
  6
CONTINUOUS
 62
     7
 10
12.5868
 20
5.7361
 30
0
 11
12.6424
 21
5.7778
 31
0
  0
ENDBLK
  8
LAYER1
  0
BLOCK
  8
LAYER1
  2
Group30
 70
     0
 10
0
 20
0
 30
0
  0
LINE
  8
LAYER1
  6
CONTINUOUS
 62
     7
 10
12.559
 20
5.7361
 30
0
 11
12.5729
 21
5.7361
 31
0
  0
LINE
  8
LAYER1
  6
CONTINUOUS
 62
     7
 10
10.3368
 20
4.4167
 30
0
 11
10.3785
 21
4.4583
 31
0
  0
LINE
  8
LAYER1
  6
CONTINUOUS
 62
     7
 10
10.3368
 20
4.4167
 30
0
 11
10.2951
 21
4.4583
 31
0
  0
LINE
  8
LAYER1
  6
CONTINUOUS
 62
     7
 10
10.1007
 20
4.4028
 30
0
 11
10.0451
 21
4.2778
 31
0
  0
LINE
  8
LAYER1
  6
CONTINUOUS
 62
     7
 10
10.8368
 20
4.25
 30
0
 11
10.7951
 21
4.2083
 31
0
  0
LINE
  8
LAYER1
  6
CONTINUOUS
 62
     7
 10
10.8368
 20
4.25
 30
0
 11
10.8785
 21
4.2083
 31
0
  0
LINE
  8
LAYER1
  6
CONTINUOUS
 62
     7
 10
11.3368
 20
4.4167
 30
0
 11
11.3785
 21
4.4583
 31
0
  0
LINE
  8
LAYER1
  6
CONTINUOUS
 62
     7
 10
11.3368
 20
4.4167
 30
0
 11
11.2951
 21
4.4583
 31
0
  0
LINE
  8
LAYER1
  6
CONTINUOUS
 62
     7
 10
10.6146
 20
4.2778
 30
0
 11
10.5729
 21
4.4028
 31
0
  0
LINE
  8
LAYER1
  6
CONTINUOUS
 62
     7
 10
11.1007
 20
4.4028
 30
0
 11
11.0451
 21
4.2778
 31
0
  0
LINE
  8
LAYER1
  6
CONTINUOUS
 62
     7
 10
11.8368
 20
4.25
 30
0
 11
11.7951
 21
4.2083
 31
0
  0
LINE
  8
LAYER1
  6
CONTINUOUS
 62
     7
 10
11.8368
 20
4.25
 30
0
 11
11.8785
 21
4.2083
 31
0
  0
LINE
  8
LAYER1
  6
CONTINUOUS
 62
     7
 10
12.3368
 20
4.4167
 30
0
 11
12.3785
 21
4.4583
 31
0
  0
LINE
  8
LAYER1
  6
CONTINUOUS
 62
     7
 10
12.3368
 20
4.4167
 30
0
 11
12.2951
 21
4.4583
 31
0
  0
LINE
  8
LAYER1
  6
CONTINUOUS
 62
     7
 10
11.6146
 20
4.2778
 30
0
 11
11.5729
 21
4.4028
 31
0
  0
LINE
  8
LAYER1
  6
CONTINUOUS
 62
     7
 10
12.1007
 20
4.4028
 30
0
 11
12.0451
 21
4.2778
 31
0
  0
LINE
  8
LAYER1
  6
CONTINUOUS
 62
     7
 10
12.6146
 20
4.2778
 30
0
 11
12.5729
 21
4.4028
 31
0
  0
LINE
  8
LAYER1
  6
CONTINUOUS
 62
     7
 10
12.8368
 20
4.25
 30
0
 11
12.8229
 21
4.2083
 31
0
  0
POLYLINE
  8
LAYER1
  6
CONTINUOUS
 62
     7
 66
     1
 70
     0
 40
0.0078
 41
0.0078
  0
VERTEX
  8
LAYER1
 10
12.6562
 20
4.2083
 30
0
 70
     0
  0
VERTEX
  8
LAYER1
 10
12.6562
 20
4.2083
 30
0
 70
     0
  0
VERTEX
  8
LAYER1
 10
12.6424
 20
4.2083
 30
0
 70
     0
  0
VERTEX
  8
LAYER1
 10
12.6285
 20
4.2222
 30
0
 70
     0
  0
VERTEX
  8
LAYER1
 10
12.6285
 20
4.2361
 30
0
 70
     0
  0
SEQEND
  0
LINE
  8
LAYER1
  6
CONTINUOUS
 62
     7
 10
12.6562
 20
4.2083
 30
0
 11
12.8229
 21
4.2083
 31
0
  0
POLYLINE
  8
LAYER1
  6
CONTINUOUS
 62
     7
 66
     1
 70
     0
 40
0.0078
 41
0.0078
  0
VERTEX
  8
LAYER1
 10
12.5035
 20
4.4583
 30
0
 70
     0
  0
VERTEX
  8
LAYER1
 10
12.5174
 20
4.4583
 30
0
 70
     0
  0
VERTEX
  8
LAYER1
 10
12.5312
 20
4.4444
 30
0
 70
     0
  0
VERTEX
  8
LAYER1
 10
12.5312
 20
4.4444
 30
0
 70
     0
  0
VERTEX
  8
LAYER1
 10
12.5451
 20
4.4444
 30
0
 70
     0
  0
VERTEX
  8
LAYER1
 10
12.5451
 20
4.4306
 30
0
 70
     0
  0
VERTEX
  8
LAYER1
 10
12.5451
 20
4.4306
 30
0
 70
     0
  0
SEQEND
  0
LINE
  8
LAYER1
  6
CONTINUOUS
 62
     7
 10
12.5035
 20
4.4583
 30
0
 11
12.3785
 21
4.4583
 31
0
  0
LINE
  8
LAYER1
  6
CONTINUOUS
 62
     7
 10
12.6285
 20
4.2361
 30
0
 11
12.5451
 21
4.4306
 31
0
  0
POLYLINE
  8
LAYER1
  6
CONTINUOUS
 62
     7
 66
     1
 70
     0
 40
0.0078
 41
0.0078
  0
VERTEX
  8
LAYER1
 10
12.1285
 20
4.4306
 30
0
 70
     0
  0
VERTEX
  8
LAYER1
 10
12.1285
 20
4.4444
 30
0
 70
     0
  0
VERTEX
  8
LAYER1
 10
12.1285
 20
4.4444
 30
0
 70
     0
  0
VERTEX
  8
LAYER1
 10
12.1562
 20
4.4583
 30
0
 70
     0
  0
VERTEX
  8
LAYER1
 10
12.1562
 20
4.4583
 30
0
 70
     0
  0
SEQEND
  0
LINE
  8
LAYER1
  6
CONTINUOUS
 62
     7
 10
12.2951
 20
4.4583
 30
0
 11
12.1562
 21
4.4583
 31
0
  0
POLYLINE
  8
LAYER1
  6
CONTINUOUS
 62
     7
 66
     1
 70
     0
 40
0.0078
 41
0.0078
  0
VERTEX
  8
LAYER1
 10
12.0451
 20
4.2361
 30
0
 70
     0
  0
VERTEX
  8
LAYER1
 10
12.0312
 20
4.2222
 30
0
 70
     0
  0
VERTEX
  8
LAYER1
 10
12.0174
 20
4.2083
 30
0
 70
     0
  0
VERTEX
  8
LAYER1
 10
12.0174
 20
4.2083
 30
0
 70
     0
  0
VERTEX
  8
LAYER1
 10
12.0035
 20
4.2083
 30
0
 70
     0
  0
SEQEND
  0
LINE
  8
LAYER1
  6
CONTINUOUS
 62
     7
 10
11.8785
 20
4.2083
 30
0
 11
12.0035
 21
4.2083
 31
0
  0
LINE
  8
LAYER1
  6
CONTINUOUS
 62
     7
 10
12.1285
 20
4.4306
 30
0
 11
12.0451
 21
4.2361
 31
0
  0
POLYLINE
  8
LAYER1
  6
CONTINUOUS
 62
     7
 66
     1
 70
     0
 40
0.0078
 41
0.0078
  0
VERTEX
  8
LAYER1
 10
11.6562
 20
4.2083
 30
0
 70
     0
  0
VERTEX
  8
LAYER1
 10
11.6562
 20
4.2083
 30
0
 70
     0
  0
VERTEX
  8
LAYER1
 10
11.6424
 20
4.2083
 30
0
 70
     0
  0
VERTEX
  8
LAYER1
 10
11.6285
 20
4.2222
 30
0
 70
     0
  0
VERTEX
  8
LAYER1
 10
11.6285
 20
4.2361
 30
0
 70
     0
  0
SEQEND
  0
LINE
  8
LAYER1
  6
CONTINUOUS
 62
     7
 10
11.6562
 20
4.2083
 30
0
 11
11.7951
 21
4.2083
 31
0
  0
POLYLINE
  8
LAYER1
  6
CONTINUOUS
 62
     7
 66
     1
 70
     0
 40
0.0078
 41
0.0078
  0
VERTEX
  8
LAYER1
 10
11.5035
 20
4.4583
 30
0
 70
     0
  0
VERTEX
  8
LAYER1
 10
11.5174
 20
4.4583
 30
0
 70
     0
  0
VERTEX
  8
LAYER1
 10
11.5312
 20
4.4444
 30
0
 70
     0
  0
VERTEX
  8
LAYER1
 10
11.5312
 20
4.4444
 30
0
 70
     0
  0
VERTEX
  8
LAYER1
 10
11.5451
 20
4.4444
 30
0
 70
     0
  0
VERTEX
  8
LAYER1
 10
11.5451
 20
4.4306
 30
0
 70
     0
  0
VERTEX
  8
LAYER1
 10
11.5451
 20
4.4306
 30
0
 70
     0
  0
SEQEND
  0
LINE
  8
LAYER1
  6
CONTINUOUS
 62
     7
 10
11.5035
 20
4.4583
 30
0
 11
11.3785
 21
4.4583
 31
0
  0
LINE
  8
LAYER1
  6
CONTINUOUS
 62
     7
 10
11.6285
 20
4.2361
 30
0
 11
11.5451
 21
4.4306
 31
0
  0
POLYLINE
  8
LAYER1
  6
CONTINUOUS
 62
     7
 66
     1
 70
     0
 40
0.0078
 41
0.0078
  0
VERTEX
  8
LAYER1
 10
11.1285
 20
4.4306
 30
0
 70
     0
  0
VERTEX
  8
LAYER1
 10
11.1285
 20
4.4444
 30
0
 70
     0
  0
VERTEX
  8
LAYER1
 10
11.1285
 20
4.4444
 30
0
 70
     0
  0
VERTEX
  8
LAYER1
 10
11.1562
 20
4.4583
 30
0
 70
     0
  0
VERTEX
  8
LAYER1
 10
11.1562
 20
4.4583
 30
0
 70
     0
  0
SEQEND
  0
LINE
  8
LAYER1
  6
CONTINUOUS
 62
     7
 10
11.2951
 20
4.4583
 30
0
 11
11.1562
 21
4.4583
 31
0
  0
POLYLINE
  8
LAYER1
  6
CONTINUOUS
 62
     7
 66
     1
 70
     0
 40
0.0078
 41
0.0078
  0
VERTEX
  8
LAYER1
 10
11.0451
 20
4.2361
 30
0
 70
     0
  0
VERTEX
  8
LAYER1
 10
11.0312
 20
4.2222
 30
0
 70
     0
  0
VERTEX
  8
LAYER1
 10
11.0174
 20
4.2083
 30
0
 70
     0
  0
VERTEX
  8
LAYER1
 10
11.0174
 20
4.2083
 30
0
 70
     0
  0
VERTEX
  8
LAYER1
 10
11.0035
 20
4.2083
 30
0
 70
     0
  0
SEQEND
  0
LINE
  8
LAYER1
  6
CONTINUOUS
 62
     7
 10
10.8785
 20
4.2083
 30
0
 11
11.0035
 21
4.2083
 31
0
  0
LINE
  8
LAYER1
  6
CONTINUOUS
 62
     7
 10
11.1285
 20
4.4306
 30
0
 11
11.0451
 21
4.2361
 31
0
  0
POLYLINE
  8
LAYER1
  6
CONTINUOUS
 62
     7
 66
     1
 70
     0
 40
0.0078
 41
0.0078
  0
VERTEX
  8
LAYER1
 10
10.6562
 20
4.2083
 30
0
 70
     0
  0
VERTEX
  8
LAYER1
 10
10.6562
 20
4.2083
 30
0
 70
     0
  0
VERTEX
  8
LAYER1
 10
10.6424
 20
4.2083
 30
0
 70
     0
  0
VERTEX
  8
LAYER1
 10
10.6285
 20
4.2222
 30
0
 70
     0
  0
VERTEX
  8
LAYER1
 10
10.6285
 20
4.2361
 30
0
 70
     0
  0
SEQEND
  0
LINE
  8
LAYER1
  6
CONTINUOUS
 62
     7
 10
10.6562
 20
4.2083
 30
0
 11
10.7951
 21
4.2083
 31
0
  0
POLYLINE
  8
LAYER1
  6
CONTINUOUS
 62
     7
 66
     1
 70
     0
 40
0.0078
 41
0.0078
  0
VERTEX
  8
LAYER1
 10
10.5035
 20
4.4583
 30
0
 70
     0
  0
VERTEX
  8
LAYER1
 10
10.5174
 20
4.4583
 30
0
 70
     0
  0
VERTEX
  8
LAYER1
 10
10.5312
 20
4.4444
 30
0
 70
     0
  0
VERTEX
  8
LAYER1
 10
10.5312
 20
4.4444
 30
0
 70
     0
  0
VERTEX
  8
LAYER1
 10
10.5451
 20
4.4444
 30
0
 70
     0
  0
VERTEX
  8
LAYER1
 10
10.5451
 20
4.4306
 30
0
 70
     0
  0
VERTEX
  8
LAYER1
 10
10.5451
 20
4.4306
 30
0
 70
     0
  0
SEQEND
  0
LINE
  8
LAYER1
  6
CONTINUOUS
 62
     7
 10
10.6285
 20
4.2361
 30
0
 11
10.5451
 21
4.4306
 31
0
  0
LINE
  8
LAYER1
  6
CONTINUOUS
 62
     7
 10
10.5035
 20
4.4583
 30
0
 11
10.3785
 21
4.4583
 31
0
  0
POLYLINE
  8
LAYER1
  6
CONTINUOUS
 62
     7
 66
     1
 70
     0
 40
0.0078
 41
0.0078
  0
VERTEX
  8
LAYER1
 10
10.1285
 20
4.4306
 30
0
 70
     0
  0
VERTEX
  8
LAYER1
 10
10.1285
 20
4.4444
 30
0
 70
     0
  0
VERTEX
  8
LAYER1
 10
10.1285
 20
4.4444
 30
0
 70
     0
  0
VERTEX
  8
LAYER1
 10
10.1562
 20
4.4583
 30
0
 70
     0
  0
VERTEX
  8
LAYER1
 10
10.1562
 20
4.4583
 30
0
 70
     0
  0
SEQEND
  0
LINE
  8
LAYER1
  6
CONTINUOUS
 62
     7
 10
10.2951
 20
4.4583
 30
0
 11
10.1562
 21
4.4583
 31
0
  0
POLYLINE
  8
LAYER1
  6
CONTINUOUS
 62
     7
 66
     1
 70
     0
 40
0.0078
 41
0.0078
  0
VERTEX
  8
LAYER1
 10
10.0451
 20
4.2361
 30
0
 70
     0
  0
VERTEX
  8
LAYER1
 10
10.0312
 20
4.2222
 30
0
 70
     0
  0
VERTEX
  8
LAYER1
 10
10.0174
 20
4.2083
 30
0
 70
     0
  0
VERTEX
  8
LAYER1
 10
10.0174
 20
4.2083
 30
0
 70
     0
  0
VERTEX
  8
LAYER1
 10
10.0035
 20
4.2083
 30
0
 70
     0
  0
SEQEND
  0
LINE
  8
LAYER1
  6
CONTINUOUS
 62
     7
 10
10.1285
 20
4.4306
 30
0
 11
10.0451
 21
4.2361
 31
0
  0
POLYLINE
  8
LAYER1
  6
CONTINUOUS
 62
     7
 66
     1
 70
     0
 40
0.0078
 41
0.0078
  0
VERTEX
  8
LAYER1
 10
9.809
 20
4.2639
 30
0
 70
     0
  0
VERTEX
  8
LAYER1
 10
9.8229
 20
4.2639
 30
0
 70
     0
  0
VERTEX
  8
LAYER1
 10
9.8368
 20
4.2639
 30
0
 70
     0
  0
VERTEX
  8
LAYER1
 10
9.8507
 20
4.2639
 30
0
 70
     0
  0
VERTEX
  8
LAYER1
 10
9.8507
 20
4.2639
 30
0
 70
     0
  0
SEQEND
  0
LINE
  8
LAYER1
  6
CONTINUOUS
 62
     7
 10
9.809
 20
4.2639
 30
0
 11
9.7951
 21
4.2222
 31
0
  0
POLYLINE
  8
LAYER1
  6
CONTINUOUS
 62
     7
 66
     1
 70
     0
 40
0.0078
 41
0.0078
  0
VERTEX
  8
LAYER1
 10
9.9062
 20
4.2083
 30
0
 70
     0
  0
VERTEX
  8
LAYER1
 10
9.8924
 20
4.2083
 30
0
 70
     0
  0
VERTEX
  8
LAYER1
 10
9.8785
 20
4.2083
 30
0
 70
     0
  0
VERTEX
  8
LAYER1
 10
9.8646
 20
4.2222
 30
0
 70
     0
  0
VERTEX
  8
LAYER1
 10
9.8646
 20
4.2361
 30
0
 70
     0
  0
SEQEND
  0
LINE
  8
LAYER1
  6
CONTINUOUS
 62
     7
 10
9.9062
 20
4.2083
 30
0
 11
10.0035
 21
4.2083
 31
0
  0
ENDBLK
  8
LAYER1
  0
BLOCK
  8
LAYER1
  2
Group31
 70
     0
 10
0
 20
0
 30
0
  0
LINE
  8
LAYER1
  6
CONTINUOUS
 62
     7
 10
9.8507
 20
4.2639
 30
0
 11
9.8646
 21
4.2361
 31
0
  0
POLYLINE
  8
LAYER1
  6
CONTINUOUS
 62
     7
 66
     1
 70
     0
 40
0.0078
 41
0.0078
  0
VERTEX
  8
LAYER1
 10
9.809
 20
2.6944
 30
0
 70
     0
  0
VERTEX
  8
LAYER1
 10
9.8229
 20
2.6944
 30
0
 70
     0
  0
VERTEX
  8
LAYER1
 10
9.8229
 20
2.6944
 30
0
 70
     0
  0
VERTEX
  8
LAYER1
 10
9.8368
 20
2.7083
 30
0
 70
     0
  0
VERTEX
  8
LAYER1
 10
9.8368
 20
2.7083
 30
0
 70
     0
  0
VERTEX
  8
LAYER1
 10
9.8507
 20
2.6944
 30
0
 70
     0
  0
VERTEX
  8
LAYER1
 10
9.8507
 20
2.6944
 30
0
 70
     0
  0
SEQEND
  0
LINE
  8
LAYER1
  6
CONTINUOUS
 62
     7
 10
9.809
 20
2.6944
 30
0
 11
9.7951
 21
2.6528
 31
0
  0
POLYLINE
  8
LAYER1
  6
CONTINUOUS
 62
     7
 66
     1
 70
     0
 40
0.0078
 41
0.0078
  0
VERTEX
  8
LAYER1
 10
9.9062
 20
2.6528
 30
0
 70
     0
  0
VERTEX
  8
LAYER1
 10
9.8924
 20
2.6528
 30
0
 70
     0
  0
VERTEX
  8
LAYER1
 10
9.8785
 20
2.6528
 30
0
 70
     0
  0
VERTEX
  8
LAYER1
 10
9.8646
 20
2.6667
 30
0
 70
     0
  0
VERTEX
  8
LAYER1
 10
9.8646
 20
2.6667
 30
0
 70
     0
  0
SEQEND
  0
LINE
  8
LAYER1
  6
CONTINUOUS
 62
     7
 10
9.8507
 20
2.6944
 30
0
 11
9.8646
 21
2.6667
 31
0
  0
LINE
  8
LAYER1
  6
CONTINUOUS
 62
     7
 10
9.9062
 20
2.6528
 30
0
 11
10.0174
 21
2.6528
 31
0
  0
POLYLINE
  8
LAYER1
  6
CONTINUOUS
 62
     7
 66
     1
 70
     0
 40
0.0078
 41
0.0078
  0
VERTEX
  8
LAYER1
 10
10.059
 20
2.6667
 30
0
 70
     0
  0
VERTEX
  8
LAYER1
 10
10.0451
 20
2.6667
 30
0
 70
     0
  0
VERTEX
  8
LAYER1
 10
10.0312
 20
2.6528
 30
0
 70
     0
  0
VERTEX
  8
LAYER1
 10
10.0312
 20
2.6528
 30
0
 70
     0
  0
VERTEX
  8
LAYER1
 10
10.0174
 20
2.6528
 30
0
 70
     0
  0
SEQEND
  0
POLYLINE
  8
LAYER1
  6
CONTINUOUS
 62
     7
 66
     1
 70
     0
 40
0.0078
 41
0.0078
  0
VERTEX
  8
LAYER1
 10
10.1146
 20
2.7917
 30
0
 70
     0
  0
VERTEX
  8
LAYER1
 10
10.1146
 20
2.8056
 30
0
 70
     0
  0
VERTEX
  8
LAYER1
 10
10.1146
 20
2.8056
 30
0
 70
     0
  0
VERTEX
  8
LAYER1
 10
10.1424
 20
2.8194
 30
0
 70
     0
  0
VERTEX
  8
LAYER1
 10
10.1562
 20
2.8194
 30
0
 70
     0
  0
SEQEND
  0
LINE
  8
LAYER1
  6
CONTINUOUS
 62
     7
 10
10.059
 20
2.6667
 30
0
 11
10.1146
 21
2.7917
 31
0
  0
POLYLINE
  8
LAYER1
  6
CONTINUOUS
 62
     7
 66
     1
 70
     0
 40
0.0078
 41
0.0078
  0
VERTEX
  8
LAYER1
 10
10.5174
 20
2.8194
 30
0
 70
     0
  0
VERTEX
  8
LAYER1
 10
10.5312
 20
2.8194
 30
0
 70
     0
  0
VERTEX
  8
LAYER1
 10
10.5451
 20
2.8056
 30
0
 70
     0
  0
VERTEX
  8
LAYER1
 10
10.5451
 20
2.8056
 30
0
 70
     0
  0
VERTEX
  8
LAYER1
 10
10.5451
 20
2.7917
 30
0
 70
     0
  0
VERTEX
  8
LAYER1
 10
10.559
 20
2.7917
 30
0
 70
     0
  0
VERTEX
  8
LAYER1
 10
10.559
 20
2.7917
 30
0
 70
     0
  0
SEQEND
  0
LINE
  8
LAYER1
  6
CONTINUOUS
 62
     7
 10
10.3368
 20
2.7778
 30
0
 11
10.3785
 21
2.8194
 31
0
  0
POLYLINE
  8
LAYER1
  6
CONTINUOUS
 62
     7
 66
     1
 70
     0
 40
0.0078
 41
0.0078
  0
VERTEX
  8
LAYER1
 10
10.3368
 20
2.7778
 30
0
 70
     0
  0
VERTEX
  8
LAYER1
 10
10.2951
 20
2.8194
 30
0
 70
     0
  0
VERTEX
  8
LAYER1
 10
10.1562
 20
2.8194
 30
0
 70
     0
  0
SEQEND
  0
LINE
  8
LAYER1
  6
CONTINUOUS
 62
     7
 10
10.5174
 20
2.8194
 30
0
 11
10.3785
 21
2.8194
 31
0
  0
POLYLINE
  8
LAYER1
  6
CONTINUOUS
 62
     7
 66
     1
 70
     0
 40
0.0078
 41
0.0078
  0
VERTEX
  8
LAYER1
 10
10.6562
 20
2.6528
 30
0
 70
     0
  0
VERTEX
  8
LAYER1
 10
10.6424
 20
2.6528
 30
0
 70
     0
  0
VERTEX
  8
LAYER1
 10
10.6285
 20
2.6528
 30
0
 70
     0
  0
VERTEX
  8
LAYER1
 10
10.6146
 20
2.6667
 30
0
 70
     0
  0
VERTEX
  8
LAYER1
 10
10.6146
 20
2.6667
 30
0
 70
     0
  0
SEQEND
  0
LINE
  8
LAYER1
  6
CONTINUOUS
 62
     7
 10
10.559
 20
2.7917
 30
0
 11
10.6146
 21
2.6667
 31
0
  0
LINE
  8
LAYER1
  6
CONTINUOUS
 62
     7
 10
10.8368
 20
2.6944
 30
0
 11
10.8785
 21
2.6528
 31
0
  0
POLYLINE
  8
LAYER1
  6
CONTINUOUS
 62
     7
 66
     1
 70
     0
 40
0.0078
 41
0.0078
  0
VERTEX
  8
LAYER1
 10
10.8368
 20
2.6944
 30
0
 70
     0
  0
VERTEX
  8
LAYER1
 10
10.7951
 20
2.6528
 30
0
 70
     0
  0
VERTEX
  8
LAYER1
 10
10.6562
 20
2.6528
 30
0
 70
     0
  0
SEQEND
  0
LINE
  8
LAYER1
  6
CONTINUOUS
 62
     7
 10
11.0174
 20
2.6528
 30
0
 11
10.8785
 21
2.6528
 31
0
  0
POLYLINE
  8
LAYER1
  6
CONTINUOUS
 62
     7
 66
     1
 70
     0
 40
0.0078
 41
0.0078
  0
VERTEX
  8
LAYER1
 10
11.059
 20
2.6667
 30
0
 70
     0
  0
VERTEX
  8
LAYER1
 10
11.0451
 20
2.6667
 30
0
 70
     0
  0
VERTEX
  8
LAYER1
 10
11.0312
 20
2.6528
 30
0
 70
     0
  0
VERTEX
  8
LAYER1
 10
11.0312
 20
2.6528
 30
0
 70
     0
  0
VERTEX
  8
LAYER1
 10
11.0174
 20
2.6528
 30
0
 70
     0
  0
SEQEND
  0
POLYLINE
  8
LAYER1
  6
CONTINUOUS
 62
     7
 66
     1
 70
     0
 40
0.0078
 41
0.0078
  0
VERTEX
  8
LAYER1
 10
11.1146
 20
2.7917
 30
0
 70
     0
  0
VERTEX
  8
LAYER1
 10
11.1146
 20
2.8056
 30
0
 70
     0
  0
VERTEX
  8
LAYER1
 10
11.1146
 20
2.8056
 30
0
 70
     0
  0
VERTEX
  8
LAYER1
 10
11.1424
 20
2.8194
 30
0
 70
     0
  0
VERTEX
  8
LAYER1
 10
11.1562
 20
2.8194
 30
0
 70
     0
  0
SEQEND
  0
LINE
  8
LAYER1
  6
CONTINUOUS
 62
     7
 10
11.059
 20
2.6667
 30
0
 11
11.1146
 21
2.7917
 31
0
  0
POLYLINE
  8
LAYER1
  6
CONTINUOUS
 62
     7
 66
     1
 70
     0
 40
0.0078
 41
0.0078
  0
VERTEX
  8
LAYER1
 10
11.5174
 20
2.8194
 30
0
 70
     0
  0
VERTEX
  8
LAYER1
 10
11.5312
 20
2.8194
 30
0
 70
     0
  0
VERTEX
  8
LAYER1
 10
11.5451
 20
2.8056
 30
0
 70
     0
  0
VERTEX
  8
LAYER1
 10
11.5451
 20
2.8056
 30
0
 70
     0
  0
VERTEX
  8
LAYER1
 10
11.5451
 20
2.7917
 30
0
 70
     0
  0
VERTEX
  8
LAYER1
 10
11.559
 20
2.7917
 30
0
 70
     0
  0
VERTEX
  8
LAYER1
 10
11.559
 20
2.7917
 30
0
 70
     0
  0
SEQEND
  0
LINE
  8
LAYER1
  6
CONTINUOUS
 62
     7
 10
11.3368
 20
2.7778
 30
0
 11
11.3785
 21
2.8194
 31
0
  0
POLYLINE
  8
LAYER1
  6
CONTINUOUS
 62
     7
 66
     1
 70
     0
 40
0.0078
 41
0.0078
  0
VERTEX
  8
LAYER1
 10
11.3368
 20
2.7778
 30
0
 70
     0
  0
VERTEX
  8
LAYER1
 10
11.2951
 20
2.8194
 30
0
 70
     0
  0
VERTEX
  8
LAYER1
 10
11.1562
 20
2.8194
 30
0
 70
     0
  0
SEQEND
  0
LINE
  8
LAYER1
  6
CONTINUOUS
 62
     7
 10
11.5174
 20
2.8194
 30
0
 11
11.3785
 21
2.8194
 31
0
  0
POLYLINE
  8
LAYER1
  6
CONTINUOUS
 62
     7
 66
     1
 70
     0
 40
0.0078
 41
0.0078
  0
VERTEX
  8
LAYER1
 10
11.6562
 20
2.6528
 30
0
 70
     0
  0
VERTEX
  8
LAYER1
 10
11.6424
 20
2.6528
 30
0
 70
     0
  0
VERTEX
  8
LAYER1
 10
11.6285
 20
2.6528
 30
0
 70
     0
  0
VERTEX
  8
LAYER1
 10
11.6146
 20
2.6667
 30
0
 70
     0
  0
VERTEX
  8
LAYER1
 10
11.6146
 20
2.6667
 30
0
 70
     0
  0
SEQEND
  0
LINE
  8
LAYER1
  6
CONTINUOUS
 62
     7
 10
11.559
 20
2.7917
 30
0
 11
11.6146
 21
2.6667
 31
0
  0
LINE
  8
LAYER1
  6
CONTINUOUS
 62
     7
 10
11.8368
 20
2.6944
 30
0
 11
11.8785
 21
2.6528
 31
0
  0
POLYLINE
  8
LAYER1
  6
CONTINUOUS
 62
     7
 66
     1
 70
     0
 40
0.0078
 41
0.0078
  0
VERTEX
  8
LAYER1
 10
11.8368
 20
2.6944
 30
0
 70
     0
  0
VERTEX
  8
LAYER1
 10
11.7951
 20
2.6528
 30
0
 70
     0
  0
VERTEX
  8
LAYER1
 10
11.6562
 20
2.6528
 30
0
 70
     0
  0
SEQEND
  0
LINE
  8
LAYER1
  6
CONTINUOUS
 62
     7
 10
12.0174
 20
2.6528
 30
0
 11
11.8785
 21
2.6528
 31
0
  0
POLYLINE
  8
LAYER1
  6
CONTINUOUS
 62
     7
 66
     1
 70
     0
 40
0.0078
 41
0.0078
  0
VERTEX
  8
LAYER1
 10
12.059
 20
2.6667
 30
0
 70
     0
  0
VERTEX
  8
LAYER1
 10
12.0451
 20
2.6667
 30
0
 70
     0
  0
VERTEX
  8
LAYER1
 10
12.0312
 20
2.6528
 30
0
 70
     0
  0
VERTEX
  8
LAYER1
 10
12.0312
 20
2.6528
 30
0
 70
     0
  0
VERTEX
  8
LAYER1
 10
12.0174
 20
2.6528
 30
0
 70
     0
  0
SEQEND
  0
POLYLINE
  8
LAYER1
  6
CONTINUOUS
 62
     7
 66
     1
 70
     0
 40
0.0078
 41
0.0078
  0
VERTEX
  8
LAYER1
 10
12.1146
 20
2.7917
 30
0
 70
     0
  0
VERTEX
  8
LAYER1
 10
12.1146
 20
2.8056
 30
0
 70
     0
  0
VERTEX
  8
LAYER1
 10
12.1146
 20
2.8056
 30
0
 70
     0
  0
VERTEX
  8
LAYER1
 10
12.1424
 20
2.8194
 30
0
 70
     0
  0
VERTEX
  8
LAYER1
 10
12.1562
 20
2.8194
 30
0
 70
     0
  0
SEQEND
  0
LINE
  8
LAYER1
  6
CONTINUOUS
 62
     7
 10
12.059
 20
2.6667
 30
0
 11
12.1146
 21
2.7917
 31
0
  0
POLYLINE
  8
LAYER1
  6
CONTINUOUS
 62
     7
 66
     1
 70
     0
 40
0.0078
 41
0.0078
  0
VERTEX
  8
LAYER1
 10
12.5174
 20
2.8194
 30
0
 70
     0
  0
VERTEX
  8
LAYER1
 10
12.5312
 20
2.8194
 30
0
 70
     0
  0
VERTEX
  8
LAYER1
 10
12.5451
 20
2.8056
 30
0
 70
     0
  0
VERTEX
  8
LAYER1
 10
12.5451
 20
2.8056
 30
0
 70
     0
  0
VERTEX
  8
LAYER1
 10
12.5451
 20
2.7917
 30
0
 70
     0
  0
VERTEX
  8
LAYER1
 10
12.559
 20
2.7917
 30
0
 70
     0
  0
VERTEX
  8
LAYER1
 10
12.559
 20
2.7917
 30
0
 70
     0
  0
SEQEND
  0
LINE
  8
LAYER1
  6
CONTINUOUS
 62
     7
 10
12.3368
 20
2.7778
 30
0
 11
12.3785
 21
2.8194
 31
0
  0
POLYLINE
  8
LAYER1
  6
CONTINUOUS
 62
     7
 66
     1
 70
     0
 40
0.0078
 41
0.0078
  0
VERTEX
  8
LAYER1
 10
12.3368
 20
2.7778
 30
0
 70
     0
  0
VERTEX
  8
LAYER1
 10
12.2951
 20
2.8194
 30
0
 70
     0
  0
VERTEX
  8
LAYER1
 10
12.1562
 20
2.8194
 30
0
 70
     0
  0
SEQEND
  0
LINE
  8
LAYER1
  6
CONTINUOUS
 62
     7
 10
12.5174
 20
2.8194
 30
0
 11
12.3785
 21
2.8194
 31
0
  0
POLYLINE
  8
LAYER1
  6
CONTINUOUS
 62
     7
 66
     1
 70
     0
 40
0.0078
 41
0.0078
  0
VERTEX
  8
LAYER1
 10
12.6562
 20
2.6528
 30
0
 70
     0
  0
VERTEX
  8
LAYER1
 10
12.6424
 20
2.6528
 30
0
 70
     0
  0
VERTEX
  8
LAYER1
 10
12.6285
 20
2.6528
 30
0
 70
     0
  0
VERTEX
  8
LAYER1
 10
12.6146
 20
2.6667
 30
0
 70
     0
  0
VERTEX
  8
LAYER1
 10
12.6146
 20
2.6667
 30
0
 70
     0
  0
SEQEND
  0
LINE
  8
LAYER1
  6
CONTINUOUS
 62
     7
 10
12.559
 20
2.7917
 30
0
 11
12.6146
 21
2.6667
 31
0
  0
LINE
  8
LAYER1
  6
CONTINUOUS
 62
     7
 10
12.8229
 20
2.6528
 30
0
 11
12.6562
 21
2.6528
 31
0
  0
ENDBLK
  8
LAYER1
  0
BLOCK
  8
LAYER1
  2
Group32
 70
     0
 10
0
 20
0
 30
0
  0
LINE
  8
LAYER1
  6
CONTINUOUS
 62
     7
 10
12.8368
 20
2.6944
 30
0
 11
12.8229
 21
2.6528
 31
0
  0
POLYLINE
  8
LAYER1
  6
CONTINUOUS
 62
     7
 66
     1
 70
     0
 40
0.0078
 41
0.0078
  0
VERTEX
  8
LAYER1
 10
9.9062
 20
1.4167
 30
0
 70
     0
  0
VERTEX
  8
LAYER1
 10
9.9062
 20
1.4028
 30
0
 70
     0
  0
VERTEX
  8
LAYER1
 10
9.9062
 20
1.4028
 30
0
 70
     0
  0
VERTEX
  8
LAYER1
 10
9.8924
 20
1.4028
 30
0
 70
     0
  0
VERTEX
  8
LAYER1
 10
9.8785
 20
1.4028
 30
0
 70
     0
  0
SEQEND
  0
POLYLINE
  8
LAYER1
  6
CONTINUOUS
 62
     7
 66
     1
 70
     0
 40
0.0078
 41
0.0078
  0
VERTEX
  8
LAYER1
 10
9.9201
 20
1.5139
 30
0
 70
     0
  0
VERTEX
  8
LAYER1
 10
9.934
 20
1.5139
 30
0
 70
     0
  0
VERTEX
  8
LAYER1
 10
9.934
 20
1.5139
 30
0
 70
     0
  0
VERTEX
  8
LAYER1
 10
9.9479
 20
1.5278
 30
0
 70
     0
  0
VERTEX
  8
LAYER1
 10
9.9479
 20
1.5278
 30
0
 70
     0
  0
SEQEND
  0
LINE
  8
LAYER1
  6
CONTINUOUS
 62
     7
 10
9.9062
 20
1.4167
 30
0
 11
9.9201
 21
1.5139
 31
0
  0
POLYLINE
  8
LAYER1
  6
CONTINUOUS
 62
     7
 66
     1
 70
     0
 40
0.0078
 41
0.0078
  0
VERTEX
  8
LAYER1
 10
10.2674
 20
1.4028
 30
0
 70
     0
  0
VERTEX
  8
LAYER1
 10
10.2535
 20
1.4028
 30
0
 70
     0
  0
VERTEX
  8
LAYER1
 10
10.2535
 20
1.4167
 30
0
 70
     0
  0
SEQEND
  0
POLYLINE
  8
LAYER1
  6
CONTINUOUS
 62
     7
 66
     1
 70
     0
 40
0.0078
 41
0.0078
  0
VERTEX
  8
LAYER1
 10
10.4062
 20
1.4167
 30
0
 70
     0
  0
VERTEX
  8
LAYER1
 10
10.4062
 20
1.4028
 30
0
 70
     0
  0
VERTEX
  8
LAYER1
 10
10.4062
 20
1.4028
 30
0
 70
     0
  0
VERTEX
  8
LAYER1
 10
10.3924
 20
1.4028
 30
0
 70
     0
  0
VERTEX
  8
LAYER1
 10
10.3785
 20
1.4028
 30
0
 70
     0
  0
SEQEND
  0
LINE
  8
LAYER1
  6
CONTINUOUS
 62
     7
 10
10.2674
 20
1.4028
 30
0
 11
10.3785
 21
1.4028
 31
0
  0
POLYLINE
  8
LAYER1
  6
CONTINUOUS
 62
     7
 66
     1
 70
     0
 40
0.0078
 41
0.0078
  0
VERTEX
  8
LAYER1
 10
10.4201
 20
1.5139
 30
0
 70
     0
  0
VERTEX
  8
LAYER1
 10
10.434
 20
1.5139
 30
0
 70
     0
  0
VERTEX
  8
LAYER1
 10
10.434
 20
1.5139
 30
0
 70
     0
  0
VERTEX
  8
LAYER1
 10
10.4479
 20
1.5278
 30
0
 70
     0
  0
VERTEX
  8
LAYER1
 10
10.4479
 20
1.5278
 30
0
 70
     0
  0
SEQEND
  0
LINE
  8
LAYER1
  6
CONTINUOUS
 62
     7
 10
10.4062
 20
1.4167
 30
0
 11
10.4201
 21
1.5139
 31
0
  0
POLYLINE
  8
LAYER1
  6
CONTINUOUS
 62
     7
 66
     1
 70
     0
 40
0.0078
 41
0.0078
  0
VERTEX
  8
LAYER1
 10
10.1979
 20
1.5278
 30
0
 70
     0
  0
VERTEX
  8
LAYER1
 10
10.2118
 20
1.5278
 30
0
 70
     0
  0
VERTEX
  8
LAYER1
 10
10.2118
 20
1.5139
 30
0
 70
     0
  0
VERTEX
  8
LAYER1
 10
10.2118
 20
1.5139
 30
0
 70
     0
  0
VERTEX
  8
LAYER1
 10
10.2257
 20
1.5139
 30
0
 70
     0
  0
SEQEND
  0
LINE
  8
LAYER1
  6
CONTINUOUS
 62
     7
 10
10.2257
 20
1.5139
 30
0
 11
10.2535
 21
1.4167
 31
0
  0
POLYLINE
  8
LAYER1
  6
CONTINUOUS
 62
     7
 66
     1
 70
     0
 40
0.0078
 41
0.0078
  0
VERTEX
  8
LAYER1
 10
10.7674
 20
1.4028
 30
0
 70
     0
  0
VERTEX
  8
LAYER1
 10
10.7535
 20
1.4028
 30
0
 70
     0
  0
VERTEX
  8
LAYER1
 10
10.7535
 20
1.4167
 30
0
 70
     0
  0
SEQEND
  0
POLYLINE
  8
LAYER1
  6
CONTINUOUS
 62
     7
 66
     1
 70
     0
 40
0.0078
 41
0.0078
  0
VERTEX
  8
LAYER1
 10
10.9062
 20
1.4167
 30
0
 70
     0
  0
VERTEX
  8
LAYER1
 10
10.9062
 20
1.4028
 30
0
 70
     0
  0
VERTEX
  8
LAYER1
 10
10.9062
 20
1.4028
 30
0
 70
     0
  0
VERTEX
  8
LAYER1
 10
10.8924
 20
1.4028
 30
0
 70
     0
  0
VERTEX
  8
LAYER1
 10
10.8785
 20
1.4028
 30
0
 70
     0
  0
SEQEND
  0
LINE
  8
LAYER1
  6
CONTINUOUS
 62
     7
 10
10.7674
 20
1.4028
 30
0
 11
10.8785
 21
1.4028
 31
0
  0
POLYLINE
  8
LAYER1
  6
CONTINUOUS
 62
     7
 66
     1
 70
     0
 40
0.0078
 41
0.0078
  0
VERTEX
  8
LAYER1
 10
10.9201
 20
1.5139
 30
0
 70
     0
  0
VERTEX
  8
LAYER1
 10
10.934
 20
1.5139
 30
0
 70
     0
  0
VERTEX
  8
LAYER1
 10
10.934
 20
1.5139
 30
0
 70
     0
  0
VERTEX
  8
LAYER1
 10
10.9479
 20
1.5278
 30
0
 70
     0
  0
VERTEX
  8
LAYER1
 10
10.9479
 20
1.5278
 30
0
 70
     0
  0
SEQEND
  0
LINE
  8
LAYER1
  6
CONTINUOUS
 62
     7
 10
10.9062
 20
1.4167
 30
0
 11
10.9201
 21
1.5139
 31
0
  0
POLYLINE
  8
LAYER1
  6
CONTINUOUS
 62
     7
 66
     1
 70
     0
 40
0.0078
 41
0.0078
  0
VERTEX
  8
LAYER1
 10
10.6979
 20
1.5278
 30
0
 70
     0
  0
VERTEX
  8
LAYER1
 10
10.7118
 20
1.5278
 30
0
 70
     0
  0
VERTEX
  8
LAYER1
 10
10.7118
 20
1.5139
 30
0
 70
     0
  0
VERTEX
  8
LAYER1
 10
10.7118
 20
1.5139
 30
0
 70
     0
  0
VERTEX
  8
LAYER1
 10
10.7257
 20
1.5139
 30
0
 70
     0
  0
SEQEND
  0
LINE
  8
LAYER1
  6
CONTINUOUS
 62
     7
 10
10.7257
 20
1.5139
 30
0
 11
10.7535
 21
1.4167
 31
0
  0
POLYLINE
  8
LAYER1
  6
CONTINUOUS
 62
     7
 66
     1
 70
     0
 40
0.0078
 41
0.0078
  0
VERTEX
  8
LAYER1
 10
11.2674
 20
1.4028
 30
0
 70
     0
  0
VERTEX
  8
LAYER1
 10
11.2535
 20
1.4028
 30
0
 70
     0
  0
VERTEX
  8
LAYER1
 10
11.2535
 20
1.4167
 30
0
 70
     0
  0
SEQEND
  0
POLYLINE
  8
LAYER1
  6
CONTINUOUS
 62
     7
 66
     1
 70
     0
 40
0.0078
 41
0.0078
  0
VERTEX
  8
LAYER1
 10
11.4062
 20
1.4167
 30
0
 70
     0
  0
VERTEX
  8
LAYER1
 10
11.4062
 20
1.4028
 30
0
 70
     0
  0
VERTEX
  8
LAYER1
 10
11.4062
 20
1.4028
 30
0
 70
     0
  0
VERTEX
  8
LAYER1
 10
11.3924
 20
1.4028
 30
0
 70
     0
  0
VERTEX
  8
LAYER1
 10
11.3785
 20
1.4028
 30
0
 70
     0
  0
SEQEND
  0
LINE
  8
LAYER1
  6
CONTINUOUS
 62
     7
 10
11.2674
 20
1.4028
 30
0
 11
11.3785
 21
1.4028
 31
0
  0
POLYLINE
  8
LAYER1
  6
CONTINUOUS
 62
     7
 66
     1
 70
     0
 40
0.0078
 41
0.0078
  0
VERTEX
  8
LAYER1
 10
11.4201
 20
1.5139
 30
0
 70
     0
  0
VERTEX
  8
LAYER1
 10
11.434
 20
1.5139
 30
0
 70
     0
  0
VERTEX
  8
LAYER1
 10
11.434
 20
1.5139
 30
0
 70
     0
  0
VERTEX
  8
LAYER1
 10
11.4479
 20
1.5278
 30
0
 70
     0
  0
VERTEX
  8
LAYER1
 10
11.4479
 20
1.5278
 30
0
 70
     0
  0
SEQEND
  0
LINE
  8
LAYER1
  6
CONTINUOUS
 62
     7
 10
11.4062
 20
1.4167
 30
0
 11
11.4201
 21
1.5139
 31
0
  0
POLYLINE
  8
LAYER1
  6
CONTINUOUS
 62
     7
 66
     1
 70
     0
 40
0.0078
 41
0.0078
  0
VERTEX
  8
LAYER1
 10
11.1979
 20
1.5278
 30
0
 70
     0
  0
VERTEX
  8
LAYER1
 10
11.2118
 20
1.5278
 30
0
 70
     0
  0
VERTEX
  8
LAYER1
 10
11.2118
 20
1.5139
 30
0
 70
     0
  0
VERTEX
  8
LAYER1
 10
11.2118
 20
1.5139
 30
0
 70
     0
  0
VERTEX
  8
LAYER1
 10
11.2257
 20
1.5139
 30
0
 70
     0
  0
SEQEND
  0
LINE
  8
LAYER1
  6
CONTINUOUS
 62
     7
 10
11.2257
 20
1.5139
 30
0
 11
11.2535
 21
1.4167
 31
0
  0
POLYLINE
  8
LAYER1
  6
CONTINUOUS
 62
     7
 66
     1
 70
     0
 40
0.0078
 41
0.0078
  0
VERTEX
  8
LAYER1
 10
11.7674
 20
1.4028
 30
0
 70
     0
  0
VERTEX
  8
LAYER1
 10
11.7535
 20
1.4028
 30
0
 70
     0
  0
VERTEX
  8
LAYER1
 10
11.7535
 20
1.4167
 30
0
 70
     0
  0
SEQEND
  0
POLYLINE
  8
LAYER1
  6
CONTINUOUS
 62
     7
 66
     1
 70
     0
 40
0.0078
 41
0.0078
  0
VERTEX
  8
LAYER1
 10
11.9062
 20
1.4167
 30
0
 70
     0
  0
VERTEX
  8
LAYER1
 10
11.9062
 20
1.4028
 30
0
 70
     0
  0
VERTEX
  8
LAYER1
 10
11.9062
 20
1.4028
 30
0
 70
     0
  0
VERTEX
  8
LAYER1
 10
11.8924
 20
1.4028
 30
0
 70
     0
  0
VERTEX
  8
LAYER1
 10
11.8785
 20
1.4028
 30
0
 70
     0
  0
SEQEND
  0
LINE
  8
LAYER1
  6
CONTINUOUS
 62
     7
 10
11.7674
 20
1.4028
 30
0
 11
11.8785
 21
1.4028
 31
0
  0
POLYLINE
  8
LAYER1
  6
CONTINUOUS
 62
     7
 66
     1
 70
     0
 40
0.0078
 41
0.0078
  0
VERTEX
  8
LAYER1
 10
11.9201
 20
1.5139
 30
0
 70
     0
  0
VERTEX
  8
LAYER1
 10
11.934
 20
1.5139
 30
0
 70
     0
  0
VERTEX
  8
LAYER1
 10
11.934
 20
1.5139
 30
0
 70
     0
  0
VERTEX
  8
LAYER1
 10
11.9479
 20
1.5278
 30
0
 70
     0
  0
VERTEX
  8
LAYER1
 10
11.9479
 20
1.5278
 30
0
 70
     0
  0
SEQEND
  0
LINE
  8
LAYER1
  6
CONTINUOUS
 62
     7
 10
11.9062
 20
1.4167
 30
0
 11
11.9201
 21
1.5139
 31
0
  0
POLYLINE
  8
LAYER1
  6
CONTINUOUS
 62
     7
 66
     1
 70
     0
 40
0.0078
 41
0.0078
  0
VERTEX
  8
LAYER1
 10
11.6979
 20
1.5278
 30
0
 70
     0
  0
VERTEX
  8
LAYER1
 10
11.7118
 20
1.5278
 30
0
 70
     0
  0
VERTEX
  8
LAYER1
 10
11.7118
 20
1.5139
 30
0
 70
     0
  0
VERTEX
  8
LAYER1
 10
11.7118
 20
1.5139
 30
0
 70
     0
  0
VERTEX
  8
LAYER1
 10
11.7257
 20
1.5139
 30
0
 70
     0
  0
SEQEND
  0
LINE
  8
LAYER1
  6
CONTINUOUS
 62
     7
 10
11.7257
 20
1.5139
 30
0
 11
11.7535
 21
1.4167
 31
0
  0
POLYLINE
  8
LAYER1
  6
CONTINUOUS
 62
     7
 66
     1
 70
     0
 40
0.0078
 41
0.0078
  0
VERTEX
  8
LAYER1
 10
12.2674
 20
1.4028
 30
0
 70
     0
  0
VERTEX
  8
LAYER1
 10
12.2535
 20
1.4028
 30
0
 70
     0
  0
VERTEX
  8
LAYER1
 10
12.2535
 20
1.4167
 30
0
 70
     0
  0
SEQEND
  0
POLYLINE
  8
LAYER1
  6
CONTINUOUS
 62
     7
 66
     1
 70
     0
 40
0.0078
 41
0.0078
  0
VERTEX
  8
LAYER1
 10
12.4062
 20
1.4167
 30
0
 70
     0
  0
VERTEX
  8
LAYER1
 10
12.4062
 20
1.4028
 30
0
 70
     0
  0
VERTEX
  8
LAYER1
 10
12.4062
 20
1.4028
 30
0
 70
     0
  0
VERTEX
  8
LAYER1
 10
12.3924
 20
1.4028
 30
0
 70
     0
  0
VERTEX
  8
LAYER1
 10
12.3785
 20
1.4028
 30
0
 70
     0
  0
SEQEND
  0
LINE
  8
LAYER1
  6
CONTINUOUS
 62
     7
 10
12.2674
 20
1.4028
 30
0
 11
12.3785
 21
1.4028
 31
0
  0
POLYLINE
  8
LAYER1
  6
CONTINUOUS
 62
     7
 66
     1
 70
     0
 40
0.0078
 41
0.0078
  0
VERTEX
  8
LAYER1
 10
12.4201
 20
1.5139
 30
0
 70
     0
  0
VERTEX
  8
LAYER1
 10
12.434
 20
1.5139
 30
0
 70
     0
  0
VERTEX
  8
LAYER1
 10
12.434
 20
1.5139
 30
0
 70
     0
  0
VERTEX
  8
LAYER1
 10
12.4479
 20
1.5278
 30
0
 70
     0
  0
VERTEX
  8
LAYER1
 10
12.4479
 20
1.5278
 30
0
 70
     0
  0
SEQEND
  0
LINE
  8
LAYER1
  6
CONTINUOUS
 62
     7
 10
12.4062
 20
1.4167
 30
0
 11
12.4201
 21
1.5139
 31
0
  0
POLYLINE
  8
LAYER1
  6
CONTINUOUS
 62
     7
 66
     1
 70
     0
 40
0.0078
 41
0.0078
  0
VERTEX
  8
LAYER1
 10
12.1979
 20
1.5278
 30
0
 70
     0
  0
VERTEX
  8
LAYER1
 10
12.2118
 20
1.5278
 30
0
 70
     0
  0
VERTEX
  8
LAYER1
 10
12.2118
 20
1.5139
 30
0
 70
     0
  0
VERTEX
  8
LAYER1
 10
12.2118
 20
1.5139
 30
0
 70
     0
  0
VERTEX
  8
LAYER1
 10
12.2257
 20
1.5139
 30
0
 70
     0
  0
SEQEND
  0
LINE
  8
LAYER1
  6
CONTINUOUS
 62
     7
 10
12.2257
 20
1.5139
 30
0
 11
12.2535
 21
1.4167
 31
0
  0
POLYLINE
  8
LAYER1
  6
CONTINUOUS
 62
     7
 66
     1
 70
     0
 40
0.0078
 41
0.0078
  0
VERTEX
  8
LAYER1
 10
12.7674
 20
1.4028
 30
0
 70
     0
  0
VERTEX
  8
LAYER1
 10
12.7535
 20
1.4028
 30
0
 70
     0
  0
VERTEX
  8
LAYER1
 10
12.7535
 20
1.4167
 30
0
 70
     0
  0
SEQEND
  0
POLYLINE
  8
LAYER1
  6
CONTINUOUS
 62
     7
 66
     1
 70
     0
 40
0.0078
 41
0.0078
  0
VERTEX
  8
LAYER1
 10
12.6979
 20
1.5278
 30
0
 70
     0
  0
VERTEX
  8
LAYER1
 10
12.7118
 20
1.5278
 30
0
 70
     0
  0
VERTEX
  8
LAYER1
 10
12.7118
 20
1.5139
 30
0
 70
     0
  0
VERTEX
  8
LAYER1
 10
12.7118
 20
1.5139
 30
0
 70
     0
  0
VERTEX
  8
LAYER1
 10
12.7257
 20
1.5139
 30
0
 70
     0
  0
SEQEND
  0
LINE
  8
LAYER1
  6
CONTINUOUS
 62
     7
 10
12.7257
 20
1.5139
 30
0
 11
12.7535
 21
1.4167
 31
0
  0
LINE
  8
LAYER1
  6
CONTINUOUS
 62
     7
 10
9.9479
 20
1.5278
 30
0
 11
10.1979
 21
1.5278
 31
0
  0
LINE
  8
LAYER1
  6
CONTINUOUS
 62
     7
 10
10.4479
 20
1.5278
 30
0
 11
10.6979
 21
1.5278
 31
0
  0
LINE
  8
LAYER1
  6
CONTINUOUS
 62
     7
 10
10.9479
 20
1.5278
 30
0
 11
11.1979
 21
1.5278
 31
0
  0
LINE
  8
LAYER1
  6
CONTINUOUS
 62
     7
 10
11.4479
 20
1.5278
 30
0
 11
11.6979
 21
1.5278
 31
0
  0
LINE
  8
LAYER1
  6
CONTINUOUS
 62
     7
 10
11.9479
 20
1.5278
 30
0
 11
12.1979
 21
1.5278
 31
0
  0
LINE
  8
LAYER1
  6
CONTINUOUS
 62
     7
 10
12.4479
 20
1.5278
 30
0
 11
12.6979
 21
1.5278
 31
0
  0
POLYLINE
  8
LAYER1
  6
CONTINUOUS
 62
     7
 66
     1
 70
     0
 40
0.0078
 41
0.0078
  0
VERTEX
  8
LAYER1
 10
12.8229
 20
1.4306
 30
0
 70
     0
  0
VERTEX
  8
LAYER1
 10
12.809
 20
1.4167
 30
0
 70
     0
  0
VERTEX
  8
LAYER1
 10
12.7951
 20
1.4028
 30
0
 70
     0
  0
VERTEX
  8
LAYER1
 10
12.7951
 20
1.4028
 30
0
 70
     0
  0
VERTEX
  8
LAYER1
 10
12.7812
 20
1.4028
 30
0
 70
     0
  0
SEQEND
  0
LINE
  8
LAYER1
  6
CONTINUOUS
 62
     7
 10
12.7674
 20
1.4028
 30
0
 11
12.7812
 21
1.4028
 31
0
  0
LINE
  8
LAYER1
  6
CONTINUOUS
 62
     7
 10
12.8229
 20
1.4583
 30
0
 11
12.8229
 21
1.4306
 31
0
  0
POLYLINE
  8
LAYER1
  6
CONTINUOUS
 62
     7
 66
     1
 70
     0
 40
0.0078
 41
0.0078
  0
VERTEX
  8
LAYER1
 10
9.809
 20
1.4583
 30
0
 70
     0
  0
VERTEX
  8
LAYER1
 10
9.8229
 20
1.4722
 30
0
 70
     0
  0
VERTEX
  8
LAYER1
 10
9.8229
 20
1.4722
 30
0
 70
     0
  0
VERTEX
  8
LAYER1
 10
9.8368
 20
1.4722
 30
0
 70
     0
  0
VERTEX
  8
LAYER1
 10
9.8368
 20
1.4583
 30
0
 70
     0
  0
SEQEND
  0
LINE
  8
LAYER1
  6
CONTINUOUS
 62
     7
 10
9.809
 20
1.4583
 30
0
 11
9.809
 21
1.4306
 31
0
  0
POLYLINE
  8
LAYER1
  6
CONTINUOUS
 62
     7
 66
     1
 70
     0
 40
0.0078
 41
0.0078
  0
VERTEX
  8
LAYER1
 10
9.8646
 20
1.4028
 30
0
 70
     0
  0
VERTEX
  8
LAYER1
 10
9.8507
 20
1.4028
 30
0
 70
     0
  0
VERTEX
  8
LAYER1
 10
9.8507
 20
1.4167
 30
0
 70
     0
  0
SEQEND
  0
LINE
  8
LAYER1
  6
CONTINUOUS
 62
     7
 10
9.8646
 20
1.4028
 30
0
 11
9.8785
 21
1.4028
 31
0
  0
LINE
  8
LAYER1
  6
CONTINUOUS
 62
     7
 10
9.8368
 20
1.4583
 30
0
 11
9.8507
 21
1.4167
 31
0
  0
LINE
  8
LAYER1
  6
CONTINUOUS
 62
     7
 10
9.8924
 20
1.4306
 30
0
 11
9.9062
 21
1.4861
 31
0
  0
LINE
  8
LAYER1
  6
CONTINUOUS
 62
     7
 10
10.2396
 20
1.4861
 30
0
 11
10.2535
 21
1.4306
 31
0
  0
LINE
  8
LAYER1
  6
CONTINUOUS
 62
     7
 10
10.3924
 20
1.4306
 30
0
 11
10.4062
 21
1.4861
 31
0
  0
LINE
  8
LAYER1
  6
CONTINUOUS
 62
     7
 10
10.7396
 20
1.4861
 30
0
 11
10.7535
 21
1.4306
 31
0
  0
LINE
  8
LAYER1
  6
CONTINUOUS
 62
     7
 10
10.8924
 20
1.4306
 30
0
 11
10.9062
 21
1.4861
 31
0
  0
LINE
  8
LAYER1
  6
CONTINUOUS
 62
     7
 10
11.2396
 20
1.4861
 30
0
 11
11.2535
 21
1.4306
 31
0
  0
LINE
  8
LAYER1
  6
CONTINUOUS
 62
     7
 10
11.3924
 20
1.4306
 30
0
 11
11.4062
 21
1.4861
 31
0
  0
LINE
  8
LAYER1
  6
CONTINUOUS
 62
     7
 10
11.7396
 20
1.4861
 30
0
 11
11.7535
 21
1.4306
 31
0
  0
LINE
  8
LAYER1
  6
CONTINUOUS
 62
     7
 10
11.8924
 20
1.4306
 30
0
 11
11.9062
 21
1.4861
 31
0
  0
LINE
  8
LAYER1
  6
CONTINUOUS
 62
     7
 10
12.2396
 20
1.4861
 30
0
 11
12.2535
 21
1.4306
 31
0
  0
LINE
  8
LAYER1
  6
CONTINUOUS
 62
     7
 10
12.3924
 20
1.4306
 30
0
 11
12.4062
 21
1.4861
 31
0
  0
ENDBLK
  8
LAYER1
  0
BLOCK
  8
LAYER1
  2
Group33
 70
     0
 10
0
 20
0
 30
0
  0
LINE
  8
LAYER1
  6
CONTINUOUS
 62
     7
 10
12.7396
 20
1.4861
 30
0
 11
12.7535
 21
1.4306
 31
0
  0
LINE
  8
LAYER1
  6
CONTINUOUS
 62
     7
 10
8.4896
 20
10.8611
 30
0
 11
12.9896
 21
10.8611
 31
0
  0
TEXT
  8
LAYER1
 62
     7
 10
8.5006
 20
10.6291
 30
0
 40
0.125
  1
Concrete Decking
 50
0
999
Geneva
  0
ENDBLK
  8
LAYER1
  0
BLOCK
  8
LAYER1
  2
Group34
 70
     0
 10
0
 20
0
 30
0
  0
INSERT
  8
LAYER1
  2
Group1
 10
0
 20
0
 30
0
  0
TEXT
  8
LAYER1
 62
     7
 10
2.2089
 20
9.0041
 30
0
 40
0.0833
  1
3 N,NI,NA,NIA
 50
0
999
Geneva
  0
TEXT
  8
LAYER1
 62
     7
 10
2.1256
 20
8.8235
 30
0
 40
0.0833
  1
Concrete Decking
 50
0
999
Geneva
  0
INSERT
  8
LAYER1
  2
Group2
 10
0
 20
0
 30
0
  0
INSERT
  8
LAYER1
  2
Group3
 10
0
 20
0
 30
0
  0
TEXT
  8
LAYER1
 62
     7
 10
2.4867
 20
7.8235
 30
0
 40
0.0833
  1
1.5 A
 50
0
999
Geneva
  0
TEXT
  8
LAYER1
 62
     7
 10
2.1256
 20
7.6291
 30
0
 40
0.0833
  1
Concrete Decking
 50
0
999
Geneva
  0
INSERT
  8
LAYER1
  2
Group9
 10
0
 20
0
 30
0
  0
TEXT
  8
LAYER1
 62
     7
 10
2.1395
 20
6.4485
 30
0
 40
0.0833
  1
1.5 B,BI,BA,BIA
 50
0
999
Geneva
  0
TEXT
  8
LAYER1
 62
     7
 10
2.1256
 20
6.2541
 30
0
 40
0.0833
  1
Concrete Decking
 50
0
999
Geneva
  0
INSERT
  8
LAYER1
  2
Group10
 10
0
 20
0
 30
0
  0
TEXT
  8
LAYER1
 62
     7
 10
2.5006
 20
5.3374
 30
0
 40
0.0833
  1
1.5 F
 50
0
999
Geneva
  0
TEXT
  8
LAYER1
 62
     7
 10
2.1256
 20
5.143
 30
0
 40
0.0833
  1
Concrete Decking
 50
0
999
Geneva
  0
TEXT
  8
LAYER1
 62
     7
 10
2.3617
 20
4.518
 30
0
 40
0.0833
  1
1.0 E 32"
 50
0
999
Geneva
  0
TEXT
  8
LAYER1
 62
     7
 10
2.1256
 20
4.3374
 30
0
 40
0.0833
  1
Concrete Decking
 50
0
999
Geneva
  0
TEXT
  8
LAYER1
 62
     7
 10
2.3617
 20
3.6291
 30
0
 40
0.0833
  1
1.0 E 33"
 50
0
999
Geneva
  0
TEXT
  8
LAYER1
 62
     7
 10
2.1256
 20
3.4485
 30
0
 40
0.0833
  1
Concrete Decking
 50
0
999
Geneva
  0
INSERT
  8
LAYER1
  2
Group11
 10
0
 20
0
 30
0
  0
INSERT
  8
LAYER1
  2
Group12
 10
0
 20
0
 30
0
  0
INSERT
  8
LAYER1
  2
Group17
 10
0
 20
0
 30
0
  0
TEXT
  8
LAYER1
 62
     7
 10
2.5561
 20
2.393
 30
0
 40
0.0833
  1
3 C
 50
0
999
Geneva
  0
TEXT
  8
LAYER1
 62
     7
 10
2.1256
 20
2.2124
 30
0
 40
0.0833
  1
Concrete Decking
 50
0
999
Geneva
  0
INSERT
  8
LAYER1
  2
Group19
 10
0
 20
0
 30
0
  0
TEXT
  8
LAYER1
 62
     7
 10
2.5561
 20
1.1569
 30
0
 40
0.0833
  1
2 C
 50
0
999
Geneva
  0
TEXT
  8
LAYER1
 62
     7
 10
2.1256
 20
0.9763
 30
0
 40
0.0833
  1
Concrete Decking
 50
0
999
Geneva
  0
INSERT
  8
LAYER1
  2
Group25
 10
0
 20
0
 30
0
  0
TEXT
  8
LAYER1
 62
     7
 10
11.1534
 20
9.4208
 30
0
 40
0.0833
  1
1.5 C
 50
0
999
Geneva
  0
TEXT
  8
LAYER1
 62
     7
 10
10.7784
 20
9.2402
 30
0
 40
0.0833
  1
Concrete Decking
 50
0
999
Geneva
  0
INSERT
  8
LAYER1
  2
Group26
 10
0
 20
0
 30
0
  0
TEXT
  8
LAYER1
 62
     7
 10
11.0006
 20
8.1569
 30
0
 40
0.0833
  1
1.3 C,CSV
 50
0
999
Geneva
  0
TEXT
  8
LAYER1
 62
     7
 10
10.7784
 20
7.9624
 30
0
 40
0.0833
  1
Concrete Decking
 50
0
999
Geneva
  0
TEXT
  8
LAYER1
 62
     7
 10
11.0145
 20
7.3096
 30
0
 40
0.0833
  1
1.0 C 32"
 50
0
999
Geneva
  0
TEXT
  8
LAYER1
 62
     7
 10
10.7784
 20
7.1291
 30
0
 40
0.0833
  1
Concrete Decking
 50
0
999
Geneva
  0
TEXT
  8
LAYER1
 62
     7
 10
11.0284
 20
6.4208
 30
0
 40
0.0833
  1
1.0C 33"
 50
0
999
Geneva
  0
TEXT
  8
LAYER1
 62
     7
 10
10.7784
 20
6.2402
 30
0
 40
0.0833
  1
Concrete Decking
 50
0
999
Geneva
  0
INSERT
  8
LAYER1
  2
Group27
 10
0
 20
0
 30
0
  0
INSERT
  8
LAYER1
  2
Group28
 10
0
 20
0
 30
0
  0
INSERT
  8
LAYER1
  2
Group29
 10
0
 20
0
 30
0
  0
TEXT
  8
LAYER1
 62
     7
 10
11.0839
 20
5.4763
 30
0
 40
0.0833
  1
.6, CSV
 50
0
999
Geneva
  0
TEXT
  8
LAYER1
 62
     7
 10
10.7784
 20
5.2958
 30
0
 40
0.0833
  1
Concrete Decking
 50
0
999
Geneva
  0
INSERT
  8
LAYER1
  2
Group30
 10
0
 20
0
 30
0
  0
TEXT
  8
LAYER1
 62
     7
 10
11.1534
 20
3.6985
 30
0
 40
0.0833
  1
3 VLI
 50
0
999
Geneva
  0
TEXT
  8
LAYER1
 62
     7
 10
10.7784
 20
3.518
 30
0
 40
0.0833
  1
Concrete Decking
 50
0
999
Geneva
  0
INSERT
  8
LAYER1
  2
Group31
 10
0
 20
0
 30
0
  0
TEXT
  8
LAYER1
 62
     7
 10
11.1534
 20
2.268
 30
0
 40
0.0833
  1
2 VLI
 50
0
999
Geneva
  0
TEXT
  8
LAYER1
 62
     7
 10
10.7784
 20
2.0874
 30
0
 40
0.0833
  1
Concrete Decking
 50
0
999
Geneva
  0
INSERT
  8
LAYER1
  2
Group32
 10
0
 20
0
 30
0
  0
TEXT
  8
LAYER1
 62
     7
 10
11.0145
 20
1.1708
 30
0
 40
0.0833
  1
.5 VL, VLI
 50
0
999
Geneva
  0
TEXT
  8
LAYER1
 62
     7
 10
10.7784
 20
0.9902
 30
0
 40
0.0833
  1
Concrete Decking
 50
0
999
Geneva
  0
INSERT
  8
LAYER1
  2
Group33
 10
0
 20
0
 30
0
  0
TEXT
  8
LAYER1
 62
     7
 10
4.8061
 20
0.3096
 30
0
 40
0.0833
  1
©1992
 50
0
999
Geneva
  0
TEXT
  8
LAYER1
 62
     7
 10
4.0978
 20
0.143
 30
0
 40
0.0833
  1
Advanced System Design, Inc.
 50
0
999
Geneva
  0
TEXT
  8
LAYER1
 62
     7
 10
0.0284
 20
0.1569
 30
0
 40
0.0833
  1
Scale 1in = 1ft  Printed at 70%
 50
0
999
Geneva
  0
TEXT
  8
LAYER1
 62
     7
 10
13.1673
 20
0.3096
 30
0
 40
0.0833
  1
©1992
 50
0
999
Geneva
  0
TEXT
  8
LAYER1
 62
     7
 10
12.4589
 20
0.143
 30
0
 40
0.0833
  1
Advanced System Design, Inc.
 50
0
999
Geneva
  0
TEXT
  8
LAYER1
 62
     7
 10
8.4589
 20
0.1569
 30
0
 40
0.0833
  1
Scale 1in  = 1ft  Printed at 70%
 50
0
999
Geneva
  0
TEXT
  8
LAYER1
 62
     7
 10
2.445
 20
8.6291
 30
0
 40
0.0833
  1
46300
 50
0
999
Geneva
  0
TEXT
  8
LAYER1
 62
     7
 10
2.445
 20
7.4624
 30
0
 40
0.0833
  1
46301
 50
0
999
Geneva
  0
TEXT
  8
LAYER1
 62
     7
 10
2.445
 20
6.1013
 30
0
 40
0.0833
  1
46302
 50
0
999
Geneva
  0
TEXT
  8
LAYER1
 62
     7
 10
2.445
 20
5.0041
 30
0
 40
0.0833
  1
46303
 50
0
999
Geneva
  0
TEXT
  8
LAYER1
 62
     7
 10
2.445
 20
4.1708
 30
0
 40
0.0833
  1
46304
 50
0
999
Geneva
  0
TEXT
  8
LAYER1
 62
     7
 10
2.445
 20
3.2958
 30
0
 40
0.0833
  1
46305
 50
0
999
Geneva
  0
TEXT
  8
LAYER1
 62
     7
 10
2.445
 20
2.0458
 30
0
 40
0.0833
  1
46306
 50
0
999
Geneva
  0
TEXT
  8
LAYER1
 62
     7
 10
2.445
 20
0.8096
 30
0
 40
0.0833
  1
46307
 50
0
999
Geneva
  0
TEXT
  8
LAYER1
 62
     7
 10
11.1117
 20
9.0874
 30
0
 40
0.0833
  1
46308
 50
0
999
Geneva
  0
TEXT
  8
LAYER1
 62
     7
 10
11.1117
 20
7.7819
 30
0
 40
0.0833
  1
46309
 50
0
999
Geneva
  0
TEXT
  8
LAYER1
 62
     7
 10
11.1117
 20
6.9485
 30
0
 40
0.0833
  1
46310
 50
0
999
Geneva
  0
TEXT
  8
LAYER1
 62
     7
 10
11.1117
 20
6.0874
 30
0
 40
0.0833
  1
46311
 50
0
999
Geneva
  0
TEXT
  8
LAYER1
 62
     7
 10
11.1117
 20
5.143
 30
0
 40
0.0833
  1
46312
 50
0
999
Geneva
  0
TEXT
  8
LAYER1
 62
     7
 10
11.1117
 20
3.3374
 30
0
 40
0.0833
  1
46313
 50
0
999
Geneva
  0
TEXT
  8
LAYER1
 62
     7
 10
11.1117
 20
1.9069
 30
0
 40
0.0833
  1
46314
 50
0
999
Geneva
  0
TEXT
  8
LAYER1
 62
     7
 10
11.1117
 20
0.8096
 30
0
 40
0.0833
  1
46315
 50
0
999
Geneva
  0
TEXT
  8
LAYER1
 62
     7
 10
2.3617
 20
0.0735
 30
0
 40
0.1389
  1
- 4-222 -
 50
0
999
Geneva
  0
TEXT
  8
LAYER1
 62
     7
 10
10.5978
 20
0.0735
 30
0
 40
0.1389
  1
- 4-223 -
 50
0
999
Geneva
  0
ENDBLK
  8
LAYER1
  0
ENDSEC
  0
SECTION
  2
ENTITIES
  0
INSERT
  8
LAYER1
  2
Group34
 10
0
 20
0
 30
0
  0
ENDSEC
  0
EOF
